  0
SECTION
  2
HEADER
  9
$ACADVER
  1
AC1014
  9
$ACADMAINTVER
 70
     0
  9
$DWGCODEPAGE
  3
ANSI_1252
  9
$INSBASE
 10
0.0
 20
0.0
 30
0.0
  9
$EXTMIN
 10
0.0
 20
0.0
 30
0.0
  9
$EXTMAX
 10
252.388931
 20
200.5
 30
2.0
  9
$LIMMIN
 10
0.0
 20
0.0
  9
$LIMMAX
 10
420.0
 20
297.0
  9
$ORTHOMODE
 70
     0
  9
$REGENMODE
 70
     1
  9
$FILLMODE
 70
     1
  9
$QTEXTMODE
 70
     0
  9
$MIRRTEXT
 70
     1
  9
$DRAGMODE
 70
     2
  9
$LTSCALE
 40
1.0
  9
$OSMODE
 70
     0
  9
$ATTMODE
 70
     1
  9
$TEXTSIZE
 40
2.5
  9
$TRACEWID
 40
1.0
  9
$TEXTSTYLE
  7
STANDARD
  9
$CLAYER
  8
0
  9
$CELTYPE
  6
BYLAYER
  9
$CECOLOR
 62
   256
  9
$CELTSCALE
 40
1.0
  9
$DELOBJ
 70
     1
  9
$DISPSILH
 70
     0
  9
$DIMSCALE
 40
1.0
  9
$DIMASZ
 40
2.5
  9
$DIMEXO
 40
0.625
  9
$DIMDLI
 40
3.75
  9
$DIMRND
 40
0.0
  9
$DIMDLE
 40
0.0
  9
$DIMEXE
 40
1.25
  9
$DIMTP
 40
0.0
  9
$DIMTM
 40
0.0
  9
$DIMTXT
 40
2.5
  9
$DIMCEN
 40
2.5
  9
$DIMTSZ
 40
0.0
  9
$DIMTOL
 70
     0
  9
$DIMLIM
 70
     0
  9
$DIMTIH
 70
     0
  9
$DIMTOH
 70
     0
  9
$DIMSE1
 70
     0
  9
$DIMSE2
 70
     0
  9
$DIMTAD
 70
     1
  9
$DIMZIN
 70
     8
  9
$DIMBLK
  1

  9
$DIMASO
 70
     1
  9
$DIMSHO
 70
     1
  9
$DIMPOST
  1

  9
$DIMAPOST
  1

  9
$DIMALT
 70
     0
  9
$DIMALTD
 70
     3
  9
$DIMALTF
 40
0.03937
  9
$DIMLFAC
 40
1.0
  9
$DIMTOFL
 70
     1
  9
$DIMTVP
 40
0.0
  9
$DIMTIX
 70
     0
  9
$DIMSOXD
 70
     0
  9
$DIMSAH
 70
     0
  9
$DIMBLK1
  1

  9
$DIMBLK2
  1

  9
$DIMSTYLE
  2

  9
$DIMCLRD
 70
     0
  9
$DIMCLRE
 70
     0
  9
$DIMCLRT
 70
     0
  9
$DIMTFAC
 40
1.0
  9
$DIMGAP
 40
0.625
  9
$DIMJUST
 70
     0
  9
$DIMSD1
 70
     0
  9
$DIMSD2
 70
     0
  9
$DIMTOLJ
 70
     0
  9
$DIMTZIN
 70
     8
  9
$DIMALTZ
 70
     0
  9
$DIMALTTZ
 70
     0
  9
$DIMFIT
 70
     0
  9
$DIMUPT
 70
     0
  9
$DIMUNIT
 70
     2
  9
$DIMDEC
 70
     2
  9
$DIMTDEC
 70
     2
  9
$DIMALTU
 70
     2
  9
$DIMALTTD
 70
     3
  9
$DIMTXSTY
  7
STANDARD
  9
$DIMAUNIT
 70
     0
  9
$LUNITS
 70
     2
  9
$LUPREC
 70
     4
  9
$SKETCHINC
 40
1.0
  9
$FILLETRAD
 40
2.5
  9
$AUNITS
 70
     0
  9
$AUPREC
 70
     0
  9
$MENU
  1
.
  9
$ELEVATION
 40
0.0
  9
$PELEVATION
 40
0.0
  9
$THICKNESS
 40
0.0
  9
$LIMCHECK
 70
     0
  9
$BLIPMODE
 70
     1
  9
$CHAMFERA
 40
2.5
  9
$CHAMFERB
 40
2.5
  9
$CHAMFERC
 40
0.0
  9
$CHAMFERD
 40
0.0
  9
$SKPOLY
 70
     0
  9
$TDCREATE
 40
0.000000000
  9
$TDUPDATE
 40
0.000000000
  9
$TDINDWG
 40
0.0000000000
  9
$TDUSRTIMER
 40
0.0000000000
  9
$USRTIMER
 70
     1
  9
$ANGBASE
 50
0.0
  9
$ANGDIR
 70
     0
  9
$PDMODE
 70
     0
  9
$PDSIZE
 40
0.0
  9
$PLINEWID
 40
0.0
  9
$COORDS
 70
     0
  9
$SPLFRAME
 70
     0
  9
$SPLINETYPE
 70
     6
  9
$SPLINESEGS
 70
     8
  9
$ATTDIA
 70
     0
  9
$ATTREQ
 70
     1
  9
$HANDLING
 70
     1
  9
$HANDSEED
  5
92A
  9
$SURFTAB1
 70
     6
  9
$SURFTAB2
 70
     6
  9
$SURFTYPE
 70
     6
  9
$SURFU
 70
     6
  9
$SURFV
 70
     6
  9
$UCSNAME
  2

  9
$UCSORG
 10
0.0
 20
0.0
 30
0.0
  9
$UCSXDIR
 10
1.0
 20
0.0
 30
0.0
  9
$UCSYDIR
 10
0.0
 20
1.0
 30
0.0
  9
$PUCSNAME
  2

  9
$PUCSORG
 10
0.0
 20
0.0
 30
0.0
  9
$PUCSXDIR
 10
1.0
 20
0.0
 30
0.0
  9
$PUCSYDIR
 10
0.0
 20
1.0
 30
0.0
  9
$USERI1
 70
     0
  9
$USERI2
 70
     0
  9
$USERI3
 70
     0
  9
$USERI4
 70
     0
  9
$USERI5
 70
     0
  9
$USERR1
 40
0.0
  9
$USERR2
 40
0.0
  9
$USERR3
 40
0.0
  9
$USERR4
 40
0.0
  9
$USERR5
 40
0.0
  9
$WORLDVIEW
 70
     1
  9
$SHADEDGE
 70
     3
  9
$SHADEDIF
 70
    70
  9
$TILEMODE
 70
     1
  9
$MAXACTVP
 70
    48
  9
$PINSBASE
 10
0.0
 20
0.0
 30
0.0
  9
$PLIMCHECK
 70
     0
  9
$PEXTMIN
 10
0.0
 20
0.0
 30
0.0
  9
$PEXTMAX
 10
252.388931
 20
200.5
 30
2.0
  9
$PLIMMIN
 10
0.0
 20
0.0
  9
$PLIMMAX
 10
420.0
 20
297.0
  9
$UNITMODE
 70
     0
  9
$VISRETAIN
 70
     0
  9
$PLINEGEN
 70
     0
  9
$PSLTSCALE
 70
     1
  9
$TREEDEPTH
 70
  3020
  9
$PICKSTYLE
 70
     1
  9
$CMLSTYLE
  2
STANDARD
  9
$CMLJUST
 70
     0
  9
$CMLSCALE
 40
20.0
  9
$PROXYGRAPHICS
 70
     1
  9
$MEASUREMENT
 70
     1
  0
ENDSEC
  0
SECTION
  2
CLASSES
  0
CLASS
  1
LWPOLYLINE
  2
AcDbPolyline
  3
"AutoCAD"
 90
        0
280
     0
281
     1
  0
CLASS
  1
IMAGE
  2
AcDbRasterImage
  3
ISM
 90
      127
280
     0
281
     1
  0
CLASS
  1
OLE2FRAME
  2
AcDbOle2Frame
  3
""
 90
        0
280
     0
281
     1
  0
CLASS
  1
HATCH
  2
AcDbHatch
  3
"ACAD_SEDONA"
 90
        0
280
     0
281
     1
  0
CLASS
  1
DICTIONARYVAR
  2
AcDbDictionaryVar
  3
"AutoCAD"
 90
        0
280
     0
281
     0
  0
CLASS
  1
RASTERVARIABLES
  2
AcDbRasterVariables
  3
ISM
 90
        0
280
     0
281
     0
  0
CLASS
  1
IMAGEDEF
  2
AcDbRasterImageDef
  3
ISM
 90
        0
280
     0
281
     0
  0
CLASS
  1
IMAGEDEF_REACTOR
  2
AcDbRasterImageDefReactor
  3
ISM
 90
        1
280
     0
281
     0
  0
CLASS
  1
IDBUFFER
  2
AcDbIdBuffer
  3
"Acad"
 90
        0
280
     0
281
     0
  0
CLASS
  1
SPATIAL_FILTER
  2
AcDbSpatialFilter
  3
"Acad"
 90
        0
280
     0
281
     0
  0
CLASS
  1
XRECORD
  2
AcDbXrecord
  3
"<Built In>"
 90
        0
280
     0
281
     0
  0
CLASS
  1
SORTENTSTABLE
  2
AcDbSortentsTable
  3
"AutoCAD"
 90
        0
280
     0
281
     0
  0
CLASS
  1
LAYER_INDEX
  2
AcDbLayerIndex
  3
"Acad"
 90
        0
280
     0
281
     0
  0
CLASS
  1
SPATIAL_INDEX
  2
AcDbSpatialIndex
  3
"Acad"
 90
        0
280
     0
281
     0
  0
CLASS
  1
OBJECT_PTR
  2
CAseDLPNTableRecord
  3
"ASE-LPNTableRecord"
 90
        1
280
     0
281
     0
  0
CLASS
  1
LAYOUT
  2
AcDbLayout
  3
"AutoCAD 2000"
 90
        1
280
     0
281
     0
  0
CLASS
  1
PLOTSETTINGS
  2
AcDbPlotSettings
  3
"AutoCAD 2000"
 90
        1
280
     0
281
     0
  0
CLASS
  1
ACDBDICTIONARYWDFLT
  2
AcDbDictionaryWithDefault
  3
"AutoCAD 2000"
 90
        1
280
     0
281
     0
  0
CLASS
  1
ACDBPLACEHOLDER
  2
AcDbPlaceHolder
  3
"AutoCAD 2000"
 90
        1
280
     0
281
     0
  0
CLASS
  1
VBA_PROJECT
  2
AcDbVbaProject
  3
"acadvba"
 90
        1
280
     0
281
     0
  0
CLASS
  1
WIPEOUT
  2
AcDbWipeout
  3
WipeOut|AutoCAD Express Tool|expresstools@autodesk.com
 90
      127
280
     0
281
     1
  0
CLASS
  1
WIPEOUTVARIABLES
  2
AcDbWipeoutVariables
  3
WipeOut|AutoCAD Express Tool|expresstools@autodesk.com
 90
        0
280
     0
281
     0
  0
CLASS
  1
RTEXT
  2
RText
  3
RText|AutoCAD Express Tool|expresstools@autodesk.com
 90
        0
280
     0
281
     1
  0
CLASS
  1
ARCALIGNEDTEXT
  2
AcDbArcAlignedText
  3
ATEXT|AutoCAD Express Tool|expresstools@autodesk.com
 90
        0
280
     0
281
     1
  0
ENDSEC
  0
SECTION
  2
TABLES
  0
TABLE
  2
VPORT
  5
7
100
AcDbSymbolTable
 70
     1
  0
VPORT
  5
15
100
AcDbSymbolTableRecord
100
AcDbViewportTableRecord
  2
*ACTIVE
 70
     0
 10
0.0
 20
0.0
 11
1.0
 21
1.0
 12
6.591288
 22
4.579184
 13
0.0
 23
0.0
 14
1.0
 24
1.0
 15
0.0
 25
0.0
 16
0.0
 26
0.0
 36
1.0
 17
0.0
 27
0.0
 37
0.0
 40
9.158369
 41
0.688564
 42
50.0
 43
0.0
 44
0.0
 50
0.0
 51
0.0
 71
     0
 72
   100
 73
     1
 74
     1
 75
     0
 76
     0
 77
     0
 78
     0
  0
ENDTAB
  0
TABLE
  2
LTYPE
  5
4
100
AcDbSymbolTable
 70
    10
  0
LTYPE
  5
11
100
AcDbSymbolTableRecord
100
AcDbLinetypeTableRecord
  2
BYBLOCK
 70
    64
  3

 72
    65
 73
     0
 40
0.0
  0
LTYPE
  5
12
100
AcDbSymbolTableRecord
100
AcDbLinetypeTableRecord
  2
BYLAYER
 70
    64
  3

 72
    65
 73
     0
 40
0.0
  0
LTYPE
  5
13
100
AcDbSymbolTableRecord
100
AcDbLinetypeTableRecord
  2
CONTINUOUS
 70
    64
  3
Solid line
 72
    65
 73
     0
 40
0.0
  0
LTYPE
  5
1D
100
AcDbSymbolTableRecord
100
AcDbLinetypeTableRecord
  2
DASHED
 70
     0
  3
__ __ __ __ __ __ __ __ __ __ __ __ __ __ __ __
 72
    65
 73
     2
 40
15.0
 49
12.0
 74
     0
 49
-3.0
 74
     0
  0
LTYPE
  5
1E
100
AcDbSymbolTableRecord
100
AcDbLinetypeTableRecord
  2
DASHDOT
 70
     0
  3
 __ . __ . __ . __ . __ . __ . __ . 
 72
    65
 73
     4
 40
18.5
 49
12.0
 74
     0
 49
-3.0
 74
     0
 49
0.5
 74
     0
 49
-3.0
 74
     0
  0
LTYPE
  5
1F
100
AcDbSymbolTableRecord
100
AcDbLinetypeTableRecord
  2
DOT
 70
     0
  3
 . . . . . . . . . . . . . . . .
 72
    65
 73
     2
 40
3.5
 49
0.5
 74
     0
 49
-3.0
 74
     0
  0
LTYPE
  5
20
100
AcDbSymbolTableRecord
100
AcDbLinetypeTableRecord
  2
DASHSPACE
 70
     0
  3
__    __    __    __    __   
 72
    65
 73
     2
 40
30.0
 49
12.0
 74
     0
 49
-18.0
 74
     0
  0
LTYPE
  5
21
100
AcDbSymbolTableRecord
100
AcDbLinetypeTableRecord
  2
DASHDOT2
 70
     0
  3
__ . . __ . . __ . . __ 
 72
    65
 73
     6
 40
22.0
 49
12.0
 74
     0
 49
-3.0
 74
     0
 49
0.5
 74
     0
 49
-3.0
 74
     0
 49
0.5
 74
     0
 49
-3.0
 74
     0
  0
LTYPE
  5
22
100
AcDbSymbolTableRecord
100
AcDbLinetypeTableRecord
  2
PHANTOM
 70
     0
  3
____________    ____    ____   _
 72
    65
 73
     6
 40
20.0
 49
10.0
 74
     0
 49
-2.0
 74
     0
 49
2.0
 74
     0
 49
-2.0
 74
     0
 49
2.0
 74
     0
 49
-2.0
 74
     0
  0
LTYPE
  5
23
100
AcDbSymbolTableRecord
100
AcDbLinetypeTableRecord
  2
AXES
 70
     0
  3
________  __  ________  __  _____
 72
    65
 73
     4
 40
24.0
 49
15.0
 74
     0
 49
-3.0
 74
     0
 49
3.0
 74
     0
 49
-3.0
 74
     0
  0
ENDTAB
  0
TABLE
  2
LAYER
  5
2
100
AcDbSymbolTable
 70
     1
  0
LAYER
  5
14
100
AcDbSymbolTableRecord
100
AcDbLayerTableRecord
  2
0
 70
     0
 62
     7
  6
CONTINUOUS
  0
ENDTAB
  0
TABLE
  2
STYLE
  5
3
100
AcDbSymbolTable
 70
     1
  0
STYLE
  5
17
100
AcDbSymbolTableRecord
100
AcDbTextStyleTableRecord
  2
STANDARD
 70
     0
 40
0.0
 41
1.0
 50
0.0
 71
     0
 42
0.0
  3
txt
  4

  0
ENDTAB
  0
TABLE
  2
VIEW
  5
5
100
AcDbSymbolTable
 70
     0
  0
ENDTAB
  0
TABLE
  2
UCS
  5
6
100
AcDbSymbolTable
 70
     0
  0
ENDTAB
  0
TABLE
  2
APPID
  5
8
100
AcDbSymbolTable
 70
     1
  0
APPID
  5
16
100
AcDbSymbolTableRecord
100
AcDbRegAppTableRecord
  2
ACAD
 70
     0
  0
ENDTAB
  0
TABLE
  2
DIMSTYLE
  5
9
100
AcDbSymbolTable
 70
     1
  0
DIMSTYLE
105
18
100
AcDbSymbolTableRecord
100
AcDbDimStyleTableRecord
  2
STANDARD
 70
     0
  3

  4

  5

  6

  7

 40
1.0
 41
0.18
 42
0.0625
 43
0.38
 44
0.18
 45
0.0
 46
0.0
 47
0.0
 48
0.0
 71
     0
 72
     0
 73
     1
 74
     1
 75
     0
 76
     0
 77
     0
 78
     0
140
0.18
141
0.09
142
0.0
143
25.4
144
1.0
145
0.0
146
1.0
147
0.09
170
     0
171
     2
172
     0
173
     0
174
     0
175
     0
176
     0
177
     0
178
     0
270
     2
271
     4
272
     4
273
     2
274
     2
275
     0
280
     0
281
     0
282
     0
283
     1
284
     0
285
     0
286
     0
287
     0
288
     0
340
17
  0
ENDTAB
  0
TABLE
  2
BLOCK_RECORD
  5
1
100
AcDbSymbolTable
 70
     0
  0
BLOCK_RECORD
  5
A
100
AcDbSymbolTableRecord
100
AcDbBlockTableRecord
  2
*MODEL_SPACE
  0
BLOCK_RECORD
  5
B
100
AcDbSymbolTableRecord
100
AcDbBlockTableRecord
  2
*PAPER_SPACE
  0
ENDTAB
  0
ENDSEC
  0
SECTION
  2
BLOCKS
  0
BLOCK
  5
D
100
AcDbEntity
  8
0
100
AcDbBlockBegin
  2
*MODEL_SPACE
 70
     0
 10
0.0
 20
0.0
 30
0.0
  3
*MODEL_SPACE
  1

  0
ENDBLK
  5
E
100
AcDbEntity
  8
0
100
AcDbBlockEnd
  0
BLOCK
  5
F
100
AcDbEntity
 67
     1
  8
0
100
AcDbBlockBegin
  2
*PAPER_SPACE
 70
     0
 10
0.0
 20
0.0
 30
0.0
  3
*PAPER_SPACE
  1

  0
ENDBLK
  5
10
100
AcDbEntity
 67
     1
  8
0
100
AcDbBlockEnd
  0
ENDSEC
  0
SECTION
  2
ENTITIES
  0
VIEWPORT
  5
929
100
AcDbEntity
 67
     1
  8
0
 62
     0
 48
0.0
100
AcDbViewport
 10
0.0
 20
0.0
 30
0.0
 40
1000.0
 41
1000.0
 68
     1
 69
     1
1001
ACAD
1000
MVIEW
1002
{
1070
    16
1010
0.0
1020
0.0
1030
0.0
1010
0.0
1020
0.0
1030
1.0
1040
0.0
1040
1000.0
1040
0.0
1040
0.0
1040
50.0
1040
0.0
1040
0.0
1070
     0
1070
   100
1070
     1
1070
     1
1070
     0
1070
     0
1070
     0
1070
     0
1040
0.0
1040
0.0
1040
0.0
1040
1.0
1040
1.0
1040
1.0
1040
1.0
1070
     0
1002
{
1002
}
1002
}
  0
POLYLINE
  5
24
100
AcDbEntity
  8
0
 62
     7
100
AcDb2dPolyline
 66
     1
 10
0.0
 20
0.0
 30
0.0
 71
     2
  0
VERTEX
  5
25
100
AcDbEntity
  8
0
100
AcDbVertex
100
AcDb2dVertex
 10
161.555405
 20
-1.0
 30
0.0
  0
VERTEX
  5
26
100
AcDbEntity
  8
0
100
AcDbVertex
100
AcDb2dVertex
 10
165.055405
 20
-1.0
 30
0.0
  0
SEQEND
  5
27
100
AcDbEntity
  8
0
  0
POLYLINE
  5
28
100
AcDbEntity
  8
0
 62
     7
100
AcDb2dPolyline
 66
     1
 10
0.0
 20
0.0
 30
0.0
 71
     2
  0
VERTEX
  5
29
100
AcDbEntity
  8
0
100
AcDbVertex
100
AcDb2dVertex
 10
163.422073
 20
-1.0
 30
0.0
  0
VERTEX
  5
2A
100
AcDbEntity
  8
0
100
AcDbVertex
100
AcDb2dVertex
 10
163.422073
 20
2.266667
 30
0.0
  0
SEQEND
  5
2B
100
AcDbEntity
  8
0
  0
POLYLINE
  5
2C
100
AcDbEntity
  8
0
 62
     7
100
AcDb2dPolyline
 66
     1
 10
0.0
 20
0.0
 30
0.0
 71
     2
  0
VERTEX
  5
2D
100
AcDbEntity
  8
0
100
AcDbVertex
100
AcDb2dVertex
 10
164.822067
 20
2.266667
 30
0.0
  0
VERTEX
  5
2E
100
AcDbEntity
  8
0
100
AcDbVertex
100
AcDb2dVertex
 10
161.788742
 20
2.266667
 30
0.0
  0
SEQEND
  5
2F
100
AcDbEntity
  8
0
  0
POLYLINE
  5
30
100
AcDbEntity
  8
0
 62
     7
100
AcDb2dPolyline
 66
     1
 10
0.0
 20
0.0
 30
0.0
 71
     2
  0
VERTEX
  5
31
100
AcDbEntity
  8
0
100
AcDbVertex
100
AcDb2dVertex
 10
162.255402
 20
1.1
 30
0.0
  0
VERTEX
  5
32
100
AcDbEntity
  8
0
100
AcDbVertex
100
AcDb2dVertex
 10
162.255402
 20
-1.0
 30
0.0
  0
SEQEND
  5
33
100
AcDbEntity
  8
0
  0
POLYLINE
  5
34
100
AcDbEntity
  8
0
 62
     7
100
AcDb2dPolyline
 66
     1
 10
0.0
 20
0.0
 30
0.0
 71
     2
  0
VERTEX
  5
35
100
AcDbEntity
  8
0
100
AcDbVertex
100
AcDb2dVertex
 10
163.422073
 20
0.633333
 30
0.0
  0
VERTEX
  5
36
100
AcDbEntity
  8
0
100
AcDbVertex
100
AcDb2dVertex
 10
164.588745
 20
0.633333
 30
0.0
  0
SEQEND
  5
37
100
AcDbEntity
  8
0
  0
POLYLINE
  5
38
100
AcDbEntity
  8
0
 62
     7
100
AcDb2dPolyline
 66
     1
 10
0.0
 20
0.0
 30
0.0
 71
     2
  0
VERTEX
  5
39
100
AcDbEntity
  8
0
100
AcDbVertex
100
AcDb2dVertex
 10
166.222076
 20
-1.0
 30
0.0
  0
VERTEX
  5
3A
100
AcDbEntity
  8
0
100
AcDbVertex
100
AcDb2dVertex
 10
166.222076
 20
1.333333
 30
0.0
  0
SEQEND
  5
3B
100
AcDbEntity
  8
0
  0
POLYLINE
  5
3C
100
AcDbEntity
  8
0
 62
     7
100
AcDb2dPolyline
 66
     1
 10
0.0
 20
0.0
 30
0.0
 71
     2
  0
VERTEX
  5
3D
100
AcDbEntity
  8
0
100
AcDbVertex
100
AcDb2dVertex
 10
165.988739
 20
1.333333
 30
0.0
  0
VERTEX
  5
3E
100
AcDbEntity
  8
0
100
AcDbVertex
100
AcDb2dVertex
 10
166.922073
 20
2.266667
 30
0.0
  0
SEQEND
  5
3F
100
AcDbEntity
  8
0
  0
POLYLINE
  5
40
100
AcDbEntity
  8
0
 62
     7
100
AcDb2dPolyline
 66
     1
 10
0.0
 20
0.0
 30
0.0
 71
     2
  0
VERTEX
  5
41
100
AcDbEntity
  8
0
100
AcDbVertex
100
AcDb2dVertex
 10
167.388733
 20
1.333333
 30
0.0
  0
VERTEX
  5
42
100
AcDbEntity
  8
0
100
AcDbVertex
100
AcDb2dVertex
 10
167.388733
 20
-1.0
 30
0.0
  0
SEQEND
  5
43
100
AcDbEntity
  8
0
  0
POLYLINE
  5
44
100
AcDbEntity
  8
0
 62
     7
100
AcDb2dPolyline
 66
     1
 10
0.0
 20
0.0
 30
0.0
 71
     2
  0
VERTEX
  5
45
100
AcDbEntity
  8
0
100
AcDbVertex
100
AcDb2dVertex
 10
167.388733
 20
-0.066667
 30
0.0
  0
VERTEX
  5
46
100
AcDbEntity
  8
0
100
AcDbVertex
100
AcDb2dVertex
 10
166.222076
 20
-0.066667
 30
0.0
  0
SEQEND
  5
47
100
AcDbEntity
  8
0
  0
POLYLINE
  5
48
100
AcDbEntity
  8
0
 62
     7
100
AcDb2dPolyline
 66
     1
 10
0.0
 20
0.0
 30
0.0
 71
     2
  0
VERTEX
  5
49
100
AcDbEntity
  8
0
100
AcDbVertex
100
AcDb2dVertex
 10
166.222076
 20
0.633333
 30
0.0
  0
VERTEX
  5
4A
100
AcDbEntity
  8
0
100
AcDbVertex
100
AcDb2dVertex
 10
167.388733
 20
0.633333
 30
0.0
  0
SEQEND
  5
4B
100
AcDbEntity
  8
0
  0
POLYLINE
  5
4C
100
AcDbEntity
  8
0
 62
     7
100
AcDb2dPolyline
 66
     1
 10
0.0
 20
0.0
 30
0.0
 71
     2
  0
VERTEX
  5
4D
100
AcDbEntity
  8
0
100
AcDbVertex
100
AcDb2dVertex
 10
168.555405
 20
2.266667
 30
0.0
  0
VERTEX
  5
4E
100
AcDbEntity
  8
0
100
AcDbVertex
100
AcDb2dVertex
 10
165.055405
 20
2.266667
 30
0.0
  0
SEQEND
  5
4F
100
AcDbEntity
  8
0
  0
POLYLINE
  5
50
100
AcDbEntity
  8
0
 62
     7
100
AcDb2dPolyline
 66
     1
 10
0.0
 20
0.0
 30
0.0
 70
     1
 71
     4
  0
VERTEX
  5
51
100
AcDbEntity
  8
0
100
AcDbVertex
100
AcDb2dVertex
 10
165.288742
 20
1.333333
 30
0.0
  0
VERTEX
  5
52
100
AcDbEntity
  8
0
100
AcDbVertex
100
AcDb2dVertex
 10
165.288742
 20
-1.0
 30
0.0
  0
VERTEX
  5
53
100
AcDbEntity
  8
0
100
AcDbVertex
100
AcDb2dVertex
 10
168.322067
 20
-1.0
 30
0.0
  0
VERTEX
  5
54
100
AcDbEntity
  8
0
100
AcDbVertex
100
AcDb2dVertex
 10
168.322067
 20
1.333333
 30
0.0
  0
SEQEND
  5
55
100
AcDbEntity
  8
0
  0
POLYLINE
  5
56
100
AcDbEntity
  8
0
 62
     7
100
AcDb2dPolyline
 66
     1
 10
0.0
 20
0.0
 30
0.0
 71
     2
  0
VERTEX
  5
57
100
AcDbEntity
  8
0
100
AcDbVertex
100
AcDb2dVertex
 10
169.255402
 20
-0.533333
 30
0.0
  0
VERTEX
  5
58
100
AcDbEntity
  8
0
100
AcDbVertex
100
AcDb2dVertex
 10
171.355408
 20
1.566667
 30
0.0
  0
SEQEND
  5
59
100
AcDbEntity
  8
0
  0
POLYLINE
  5
5A
100
AcDbEntity
  8
0
 62
     7
100
AcDb2dPolyline
 66
     1
 10
0.0
 20
0.0
 30
0.0
 71
     2
  0
VERTEX
  5
5B
100
AcDbEntity
  8
0
100
AcDbVertex
100
AcDb2dVertex
 10
170.422073
 20
1.333333
 30
0.0
  0
VERTEX
  5
5C
100
AcDbEntity
  8
0
100
AcDbVertex
100
AcDb2dVertex
 10
169.955399
 20
1.8
 30
0.0
  0
SEQEND
  5
5D
100
AcDbEntity
  8
0
  0
POLYLINE
  5
5E
100
AcDbEntity
  8
0
 62
     7
100
AcDb2dPolyline
 66
     1
 10
0.0
 20
0.0
 30
0.0
 71
     2
  0
VERTEX
  5
5F
100
AcDbEntity
  8
0
100
AcDbVertex
100
AcDb2dVertex
 10
169.722076
 20
1.333333
 30
0.0
  0
VERTEX
  5
60
100
AcDbEntity
  8
0
100
AcDbVertex
100
AcDb2dVertex
 10
169.255402
 20
1.8
 30
0.0
  0
SEQEND
  5
61
100
AcDbEntity
  8
0
  0
POLYLINE
  5
62
100
AcDbEntity
  8
0
 62
     7
100
AcDb2dPolyline
 66
     1
 10
0.0
 20
0.0
 30
0.0
 71
     2
  0
VERTEX
  5
63
100
AcDbEntity
  8
0
100
AcDbVertex
100
AcDb2dVertex
 10
169.255402
 20
0.866667
 30
0.0
  0
VERTEX
  5
64
100
AcDbEntity
  8
0
100
AcDbVertex
100
AcDb2dVertex
 10
171.12207
 20
-0.066667
 30
0.0
  0
SEQEND
  5
65
100
AcDbEntity
  8
0
  0
POLYLINE
  5
66
100
AcDbEntity
  8
0
 62
     7
100
AcDb2dPolyline
 66
     1
 10
0.0
 20
0.0
 30
0.0
 70
     1
 71
     4
  0
VERTEX
  5
67
100
AcDbEntity
  8
0
100
AcDbVertex
100
AcDb2dVertex
 10
171.822067
 20
-1.0
 30
0.0
  0
VERTEX
  5
68
100
AcDbEntity
  8
0
100
AcDbVertex
100
AcDb2dVertex
 10
168.555405
 20
-1.0
 30
0.0
  0
VERTEX
  5
69
100
AcDbEntity
  8
0
100
AcDbVertex
100
AcDb2dVertex
 10
168.555405
 20
2.266667
 30
0.0
  0
VERTEX
  5
6A
100
AcDbEntity
  8
0
100
AcDbVertex
100
AcDb2dVertex
 10
171.822067
 20
2.266667
 30
0.0
  0
SEQEND
  5
6B
100
AcDbEntity
  8
0
  0
POLYLINE
  5
6C
100
AcDbEntity
  8
0
 62
     7
100
AcDb2dPolyline
 66
     1
 10
0.0
 20
0.0
 30
0.0
 71
     6
  0
VERTEX
  5
6D
100
AcDbEntity
  8
0
100
AcDbVertex
100
AcDb2dVertex
 10
177.422073
 20
-1.0
 30
0.0
  0
VERTEX
  5
6E
100
AcDbEntity
  8
0
100
AcDbVertex
100
AcDb2dVertex
 10
176.955399
 20
-0.533333
 30
0.0
  0
VERTEX
  5
6F
100
AcDbEntity
  8
0
100
AcDbVertex
100
AcDb2dVertex
 10
176.488739
 20
0.4
 30
0.0
  0
VERTEX
  5
70
100
AcDbEntity
  8
0
100
AcDbVertex
100
AcDb2dVertex
 10
176.488739
 20
1.1
 30
0.0
  0
VERTEX
  5
71
100
AcDbEntity
  8
0
100
AcDbVertex
100
AcDb2dVertex
 10
176.955399
 20
2.033333
 30
0.0
  0
VERTEX
  5
72
100
AcDbEntity
  8
0
100
AcDbVertex
100
AcDb2dVertex
 10
177.422073
 20
2.5
 30
0.0
  0
SEQEND
  5
73
100
AcDbEntity
  8
0
  0
POLYLINE
  5
74
100
AcDbEntity
  8
0
 62
     7
100
AcDb2dPolyline
 66
     1
 10
0.0
 20
0.0
 30
0.0
 71
     2
  0
VERTEX
  5
75
100
AcDbEntity
  8
0
100
AcDbVertex
100
AcDb2dVertex
 10
177.655396
 20
-0.766667
 30
0.0
  0
VERTEX
  5
76
100
AcDbEntity
  8
0
100
AcDbVertex
100
AcDb2dVertex
 10
179.522064
 20
-0.766667
 30
0.0
  0
SEQEND
  5
77
100
AcDbEntity
  8
0
  0
POLYLINE
  5
78
100
AcDbEntity
  8
0
 62
     7
100
AcDb2dPolyline
 66
     1
 10
0.0
 20
0.0
 30
0.0
 71
     3
  0
VERTEX
  5
79
100
AcDbEntity
  8
0
100
AcDbVertex
100
AcDb2dVertex
 10
178.588745
 20
-0.766667
 30
0.0
  0
VERTEX
  5
7A
100
AcDbEntity
  8
0
100
AcDbVertex
100
AcDb2dVertex
 10
178.588745
 20
2.266667
 30
0.0
  0
VERTEX
  5
7B
100
AcDbEntity
  8
0
100
AcDbVertex
100
AcDb2dVertex
 10
177.422073
 20
1.333333
 30
0.0
  0
SEQEND
  5
7C
100
AcDbEntity
  8
0
  0
POLYLINE
  5
7D
100
AcDbEntity
  8
0
 62
     7
100
AcDb2dPolyline
 66
     1
 10
0.0
 20
0.0
 30
0.0
 70
     1
 71
     4
  0
VERTEX
  5
7E
100
AcDbEntity
  8
0
100
AcDbVertex
100
AcDb2dVertex
 10
179.522064
 20
-0.3
 30
0.0
  0
VERTEX
  5
7F
100
AcDbEntity
  8
0
100
AcDbVertex
100
AcDb2dVertex
 10
179.755402
 20
-0.3
 30
0.0
  0
VERTEX
  5
80
100
AcDbEntity
  8
0
100
AcDbVertex
100
AcDb2dVertex
 10
179.755402
 20
-0.066667
 30
0.0
  0
VERTEX
  5
81
100
AcDbEntity
  8
0
100
AcDbVertex
100
AcDb2dVertex
 10
179.522064
 20
-0.066667
 30
0.0
  0
SEQEND
  5
82
100
AcDbEntity
  8
0
  0
POLYLINE
  5
83
100
AcDbEntity
  8
0
 62
     7
100
AcDb2dPolyline
 66
     1
 10
0.0
 20
0.0
 30
0.0
 70
     1
 71
     4
  0
VERTEX
  5
84
100
AcDbEntity
  8
0
100
AcDbVertex
100
AcDb2dVertex
 10
179.522064
 20
1.566667
 30
0.0
  0
VERTEX
  5
85
100
AcDbEntity
  8
0
100
AcDbVertex
100
AcDb2dVertex
 10
179.755402
 20
1.566667
 30
0.0
  0
VERTEX
  5
86
100
AcDbEntity
  8
0
100
AcDbVertex
100
AcDb2dVertex
 10
179.755402
 20
1.8
 30
0.0
  0
VERTEX
  5
87
100
AcDbEntity
  8
0
100
AcDbVertex
100
AcDb2dVertex
 10
179.522064
 20
1.8
 30
0.0
  0
SEQEND
  5
88
100
AcDbEntity
  8
0
  0
POLYLINE
  5
89
100
AcDbEntity
  8
0
 62
     7
100
AcDb2dPolyline
 66
     1
 10
0.0
 20
0.0
 30
0.0
 71
     2
  0
VERTEX
  5
8A
100
AcDbEntity
  8
0
100
AcDbVertex
100
AcDb2dVertex
 10
179.988739
 20
-0.766667
 30
0.0
  0
VERTEX
  5
8B
100
AcDbEntity
  8
0
100
AcDbVertex
100
AcDb2dVertex
 10
181.855408
 20
-0.766667
 30
0.0
  0
SEQEND
  5
8C
100
AcDbEntity
  8
0
  0
POLYLINE
  5
8D
100
AcDbEntity
  8
0
 62
     7
100
AcDb2dPolyline
 66
     1
 10
0.0
 20
0.0
 30
0.0
 71
     3
  0
VERTEX
  5
8E
100
AcDbEntity
  8
0
100
AcDbVertex
100
AcDb2dVertex
 10
180.922073
 20
-0.766667
 30
0.0
  0
VERTEX
  5
8F
100
AcDbEntity
  8
0
100
AcDbVertex
100
AcDb2dVertex
 10
180.922073
 20
2.266667
 30
0.0
  0
VERTEX
  5
90
100
AcDbEntity
  8
0
100
AcDbVertex
100
AcDb2dVertex
 10
179.755402
 20
1.333333
 30
0.0
  0
SEQEND
  5
91
100
AcDbEntity
  8
0
  0
POLYLINE
  5
92
100
AcDbEntity
  8
0
 62
     7
100
AcDb2dPolyline
 66
     1
 10
0.0
 20
0.0
 30
0.0
 71
     6
  0
VERTEX
  5
93
100
AcDbEntity
  8
0
100
AcDbVertex
100
AcDb2dVertex
 10
181.855408
 20
-1.0
 30
0.0
  0
VERTEX
  5
94
100
AcDbEntity
  8
0
100
AcDbVertex
100
AcDb2dVertex
 10
182.322067
 20
-0.533333
 30
0.0
  0
VERTEX
  5
95
100
AcDbEntity
  8
0
100
AcDbVertex
100
AcDb2dVertex
 10
182.788742
 20
0.4
 30
0.0
  0
VERTEX
  5
96
100
AcDbEntity
  8
0
100
AcDbVertex
100
AcDb2dVertex
 10
182.788742
 20
1.1
 30
0.0
  0
VERTEX
  5
97
100
AcDbEntity
  8
0
100
AcDbVertex
100
AcDb2dVertex
 10
182.322067
 20
2.033333
 30
0.0
  0
VERTEX
  5
98
100
AcDbEntity
  8
0
100
AcDbVertex
100
AcDb2dVertex
 10
181.855408
 20
2.5
 30
0.0
  0
SEQEND
  5
99
100
AcDbEntity
  8
0
  0
ELLIPSE
  5
9A
100
AcDbEntity
  8
0
 62
     7
100
AcDbEllipse
 10
182.436661
 20
104.95771
 30
0.0
 11
111.71116638183594
 21
-0.471405029296875
 31
0.0
210
0.0
220
0.0
230
1.0
 40
0.958221
 41
2.1347723007202148
 42
2.8190999031066895
  0
ELLIPSE
  5
9B
100
AcDbEntity
  8
0
 62
     7
100
AcDbEllipse
 10
150.385239
 20
105.0
 30
0.0
 11
0.0
 21
-95.5
 31
0.0
210
0.0
220
0.0
230
1.0
 40
0.957826
 41
3.2719998359680176
 42
3.4245860576629639
  0
ARC
  5
9C
100
AcDbEntity
  8
0
 62
     7
100
AcDbCircle
 10
185.186707
 20
92.257576
 30
0.0
 40
120.622704
210
0.0
220
0.0
230
1.0
100
AcDbArc
 50
120.017584
 51
120.976884
  0
ELLIPSE
  5
9D
100
AcDbEntity
  8
0
 62
     7
100
AcDbEllipse
 10
150.385239
 20
105.0
 30
0.0
 11
0.0
 21
95.5
 31
0.0
210
0.0
220
0.0
230
1.0
 40
0.957826
 41
0.000002187728569
 42
0.1304071396589279
  0
ELLIPSE
  5
9E
100
AcDbEntity
  8
0
 62
     7
100
AcDbEllipse
 10
152.683914
 20
104.999786
 30
0.0
 11
99.705062866210937
 21
0.0011367797851563
 31
0.0
210
0.0
220
0.0
230
1.0
 40
0.957827
 41
0.6303963661193848
 42
1.5707904100418091
  0
ARC
  5
9F
100
AcDbEntity
  8
0
 62
     7
100
AcDbCircle
 10
152.6633
 20
96.700645
 30
0.0
 40
103.798912
210
0.0
220
0.0
230
1.0
100
AcDbArc
 50
89.988903
 51
105.546462
  0
ELLIPSE
  5
A0
100
AcDbEntity
  8
0
 62
     7
100
AcDbEllipse
 10
140.805664
 20
105.0
 30
0.0
 11
0.0
 21
-50.5
 31
0.0
210
0.0
220
0.0
230
1.0
 40
0.957826
 41
4.2719998359680176
 42
6.2831845283508301
  0
ELLIPSE
  5
A1
100
AcDbEntity
  8
0
 62
     7
100
AcDbEllipse
 10
150.444748
 20
105.0
 30
0.0
 11
0.0
 21
-94.292877197265625
 31
0.0
210
0.0
220
0.0
230
1.0
 40
0.957826
 41
6.0040898323059082
 42
8.4732341766357422
  0
POLYLINE
  5
A2
100
AcDbEntity
  8
0
 62
     7
100
AcDb2dPolyline
 66
     1
 10
0.0
 20
0.0
 30
0.0
 71
    51
  0
VERTEX
  5
A3
100
AcDbEntity
  8
0
100
AcDbVertex
100
AcDb2dVertex
 10
125.563889
 20
14.355782
 30
0.0
  0
VERTEX
  5
A4
100
AcDbEntity
  8
0
100
AcDbVertex
100
AcDb2dVertex
 10
123.071709
 20
15.828178
 30
0.0
  0
VERTEX
  5
A5
100
AcDbEntity
  8
0
100
AcDbVertex
100
AcDb2dVertex
 10
120.618462
 20
17.365234
 30
0.0
  0
VERTEX
  5
A6
100
AcDbEntity
  8
0
100
AcDbVertex
100
AcDb2dVertex
 10
118.205811
 20
18.966225
 30
0.0
  0
VERTEX
  5
A7
100
AcDbEntity
  8
0
100
AcDbVertex
100
AcDb2dVertex
 10
115.835442
 20
20.630386
 30
0.0
  0
VERTEX
  5
A8
100
AcDbEntity
  8
0
100
AcDbVertex
100
AcDb2dVertex
 10
113.509048
 20
22.356888
 30
0.0
  0
VERTEX
  5
A9
100
AcDbEntity
  8
0
100
AcDbVertex
100
AcDb2dVertex
 10
111.228348
 20
24.144867
 30
0.0
  0
VERTEX
  5
AA
100
AcDbEntity
  8
0
100
AcDbVertex
100
AcDb2dVertex
 10
108.995026
 20
25.993416
 30
0.0
  0
VERTEX
  5
AB
100
AcDbEntity
  8
0
100
AcDbVertex
100
AcDb2dVertex
 10
106.810814
 20
27.901581
 30
0.0
  0
VERTEX
  5
AC
100
AcDbEntity
  8
0
100
AcDbVertex
100
AcDb2dVertex
 10
104.677406
 20
29.868355
 30
0.0
  0
VERTEX
  5
AD
100
AcDbEntity
  8
0
100
AcDbVertex
100
AcDb2dVertex
 10
102.596512
 20
31.892693
 30
0.0
  0
VERTEX
  5
AE
100
AcDbEntity
  8
0
100
AcDbVertex
100
AcDb2dVertex
 10
100.569809
 20
33.973495
 30
0.0
  0
VERTEX
  5
AF
100
AcDbEntity
  8
0
100
AcDbVertex
100
AcDb2dVertex
 10
98.598984
 20
36.109612
 30
0.0
  0
VERTEX
  5
B0
100
AcDbEntity
  8
0
100
AcDbVertex
100
AcDb2dVertex
 10
96.68573
 20
38.299828
 30
0.0
  0
VERTEX
  5
B1
100
AcDbEntity
  8
0
100
AcDbVertex
100
AcDb2dVertex
 10
94.831734
 20
40.542847
 30
0.0
  0
VERTEX
  5
B2
100
AcDbEntity
  8
0
100
AcDbVertex
100
AcDb2dVertex
 10
93.038658
 20
42.837326
 30
0.0
  0
VERTEX
  5
B3
100
AcDbEntity
  8
0
100
AcDbVertex
100
AcDb2dVertex
 10
91.308167
 20
45.181828
 30
0.0
  0
VERTEX
  5
B4
100
AcDbEntity
  8
0
100
AcDbVertex
100
AcDb2dVertex
 10
89.641907
 20
47.574856
 30
0.0
  0
VERTEX
  5
B5
100
AcDbEntity
  8
0
100
AcDbVertex
100
AcDb2dVertex
 10
88.041504
 20
50.014847
 30
0.0
  0
VERTEX
  5
B6
100
AcDbEntity
  8
0
100
AcDbVertex
100
AcDb2dVertex
 10
86.508522
 20
52.500172
 30
0.0
  0
VERTEX
  5
B7
100
AcDbEntity
  8
0
100
AcDbVertex
100
AcDb2dVertex
 10
85.044525
 20
55.029121
 30
0.0
  0
VERTEX
  5
B8
100
AcDbEntity
  8
0
100
AcDbVertex
100
AcDb2dVertex
 10
83.651024
 20
57.599937
 30
0.0
  0
VERTEX
  5
B9
100
AcDbEntity
  8
0
100
AcDbVertex
100
AcDb2dVertex
 10
82.329483
 20
60.210777
 30
0.0
  0
VERTEX
  5
BA
100
AcDbEntity
  8
0
100
AcDbVertex
100
AcDb2dVertex
 10
81.081329
 20
62.859711
 30
0.0
  0
VERTEX
  5
BB
100
AcDbEntity
  8
0
100
AcDbVertex
100
AcDb2dVertex
 10
79.907944
 20
65.544746
 30
0.0
  0
VERTEX
  5
BC
100
AcDbEntity
  8
0
100
AcDbVertex
100
AcDb2dVertex
 10
78.810638
 20
68.263817
 30
0.0
  0
VERTEX
  5
BD
100
AcDbEntity
  8
0
100
AcDbVertex
100
AcDb2dVertex
 10
77.790672
 20
71.014786
 30
0.0
  0
VERTEX
  5
BE
100
AcDbEntity
  8
0
100
AcDbVertex
100
AcDb2dVertex
 10
76.849228
 20
73.795433
 30
0.0
  0
VERTEX
  5
BF
100
AcDbEntity
  8
0
100
AcDbVertex
100
AcDb2dVertex
 10
75.987419
 20
76.603508
 30
0.0
  0
VERTEX
  5
C0
100
AcDbEntity
  8
0
100
AcDbVertex
100
AcDb2dVertex
 10
75.206284
 20
79.436676
 30
0.0
  0
VERTEX
  5
C1
100
AcDbEntity
  8
0
100
AcDbVertex
100
AcDb2dVertex
 10
74.506767
 20
82.292526
 30
0.0
  0
VERTEX
  5
C2
100
AcDbEntity
  8
0
100
AcDbVertex
100
AcDb2dVertex
 10
73.889732
 20
85.168633
 30
0.0
  0
VERTEX
  5
C3
100
AcDbEntity
  8
0
100
AcDbVertex
100
AcDb2dVertex
 10
73.355942
 20
88.062485
 30
0.0
  0
VERTEX
  5
C4
100
AcDbEntity
  8
0
100
AcDbVertex
100
AcDb2dVertex
 10
72.906075
 20
90.971542
 30
0.0
  0
VERTEX
  5
C5
100
AcDbEntity
  8
0
100
AcDbVertex
100
AcDb2dVertex
 10
72.540695
 20
93.89325
 30
0.0
  0
VERTEX
  5
C6
100
AcDbEntity
  8
0
100
AcDbVertex
100
AcDb2dVertex
 10
72.260269
 20
96.824989
 30
0.0
  0
VERTEX
  5
C7
100
AcDbEntity
  8
0
100
AcDbVertex
100
AcDb2dVertex
 10
72.065155
 20
99.764137
 30
0.0
  0
VERTEX
  5
C8
100
AcDbEntity
  8
0
100
AcDbVertex
100
AcDb2dVertex
 10
71.955612
 20
102.708046
 30
0.0
  0
VERTEX
  5
C9
100
AcDbEntity
  8
0
100
AcDbVertex
100
AcDb2dVertex
 10
71.93177
 20
105.654022
 30
0.0
  0
VERTEX
  5
CA
100
AcDbEntity
  8
0
100
AcDbVertex
100
AcDb2dVertex
 10
71.993675
 20
108.599411
 30
0.0
  0
VERTEX
  5
CB
100
AcDbEntity
  8
0
100
AcDbVertex
100
AcDb2dVertex
 10
72.141235
 20
111.541519
 30
0.0
  0
VERTEX
  5
CC
100
AcDbEntity
  8
0
100
AcDbVertex
100
AcDb2dVertex
 10
72.37426
 20
114.477699
 30
0.0
  0
VERTEX
  5
CD
100
AcDbEntity
  8
0
100
AcDbVertex
100
AcDb2dVertex
 10
72.692451
 20
117.405304
 30
0.0
  0
VERTEX
  5
CE
100
AcDbEntity
  8
0
100
AcDbVertex
100
AcDb2dVertex
 10
73.095406
 20
120.321716
 30
0.0
  0
VERTEX
  5
CF
100
AcDbEntity
  8
0
100
AcDbVertex
100
AcDb2dVertex
 10
73.582611
 20
123.22435
 30
0.0
  0
VERTEX
  5
D0
100
AcDbEntity
  8
0
100
AcDbVertex
100
AcDb2dVertex
 10
74.15345
 20
126.110641
 30
0.0
  0
VERTEX
  5
D1
100
AcDbEntity
  8
0
100
AcDbVertex
100
AcDb2dVertex
 10
74.807205
 20
128.978058
 30
0.0
  0
VERTEX
  5
D2
100
AcDbEntity
  8
0
100
AcDbVertex
100
AcDb2dVertex
 10
75.543076
 20
131.824142
 30
0.0
  0
VERTEX
  5
D3
100
AcDbEntity
  8
0
100
AcDbVertex
100
AcDb2dVertex
 10
76.360153
 20
134.646454
 30
0.0
  0
VERTEX
  5
D4
100
AcDbEntity
  8
0
100
AcDbVertex
100
AcDb2dVertex
 10
77.257446
 20
137.442642
 30
0.0
  0
VERTEX
  5
D5
100
AcDbEntity
  8
0
100
AcDbVertex
100
AcDb2dVertex
 10
77.735847
 20
138.830215
 30
0.0
  0
SEQEND
  5
D6
100
AcDbEntity
  8
0
  0
POLYLINE
  5
D7
100
AcDbEntity
  8
0
 62
     7
100
AcDb2dPolyline
 66
     1
 10
0.0
 20
0.0
 30
0.0
 71
     9
  0
VERTEX
  5
D8
100
AcDbEntity
  8
0
100
AcDbVertex
100
AcDb2dVertex
 10
93.50798
 20
68.872894
 30
0.0
  0
VERTEX
  5
D9
100
AcDbEntity
  8
0
100
AcDbVertex
100
AcDb2dVertex
 10
93.317223
 20
68.595123
 30
0.0
  0
VERTEX
  5
DA
100
AcDbEntity
  8
0
100
AcDbVertex
100
AcDb2dVertex
 10
93.211182
 20
68.220383
 30
0.0
  0
VERTEX
  5
DB
100
AcDbEntity
  8
0
100
AcDbVertex
100
AcDb2dVertex
 10
93.2136
 20
67.830551
 30
0.0
  0
VERTEX
  5
DC
100
AcDbEntity
  8
0
100
AcDbVertex
100
AcDb2dVertex
 10
93.342026
 20
67.380165
 30
0.0
  0
VERTEX
  5
DD
100
AcDbEntity
  8
0
100
AcDbVertex
100
AcDb2dVertex
 10
93.556946
 20
67.032593
 30
0.0
  0
VERTEX
  5
DE
100
AcDbEntity
  8
0
100
AcDbVertex
100
AcDb2dVertex
 10
93.830338
 20
66.782875
 30
0.0
  0
VERTEX
  5
DF
100
AcDbEntity
  8
0
100
AcDbVertex
100
AcDb2dVertex
 10
94.169373
 20
66.634079
 30
0.0
  0
VERTEX
  5
E0
100
AcDbEntity
  8
0
100
AcDbVertex
100
AcDb2dVertex
 10
94.354691
 20
66.613159
 30
0.0
  0
SEQEND
  5
E1
100
AcDbEntity
  8
0
  0
ARC
  5
E2
100
AcDbEntity
  8
0
 62
     7
100
AcDbCircle
 10
94.074043
 20
68.328308
 30
0.0
 40
0.785055
210
0.0
220
0.0
230
1.0
100
AcDbArc
 50
90.089785
 51
136.108158
  0
ARC
  5
E3
100
AcDbEntity
  8
0
 62
     7
100
AcDbCircle
 10
194.603943
 20
72.583755
 30
0.0
 40
1.639008
210
0.0
220
0.0
230
1.0
100
AcDbArc
 50
242.666079
 51
269.83136
  0
ARC
  5
E4
100
AcDbEntity
  8
0
 62
     7
100
AcDbCircle
 10
194.340576
 20
71.99276
 30
0.0
 40
1.451896
210
0.0
220
0.0
230
1.0
100
AcDbArc
 50
89.611296
 51
114.578493
  0
ELLIPSE
  5
E5
100
AcDbEntity
  8
0
 62
     7
100
AcDbEllipse
 10
194.474869
 20
72.194901
 30
0.0
 11
1.3526153564453125
 21
-0.4489517211914063
 31
0.0
210
0.0
220
0.0
230
1.0
 40
0.862513
 41
3.2028236389160156
 42
4.5320591926574707
  0
ELLIPSE
  5
E6
100
AcDbEntity
  8
0
 62
     7
100
AcDbEllipse
 10
133.642868
 20
42.755127
 30
0.0
 11
0.8124237060546875
 21
-1.0621566772460937
 31
0.0
210
0.0
220
0.0
230
1.0
 40
0.811065
 41
2.5863089561462402
 42
5.7278938293457031
  0
POLYLINE
  5
E7
100
AcDbEntity
  8
0
 62
     7
100
AcDb2dPolyline
 66
     1
 10
0.0
 20
0.0
 30
0.0
 71
    11
  0
VERTEX
  5
E8
100
AcDbEntity
  8
0
100
AcDbVertex
100
AcDb2dVertex
 10
83.375305
 20
115.975388
 30
0.0
  0
VERTEX
  5
E9
100
AcDbEntity
  8
0
100
AcDbVertex
100
AcDb2dVertex
 10
83.071037
 20
115.911903
 30
0.0
  0
VERTEX
  5
EA
100
AcDbEntity
  8
0
100
AcDbVertex
100
AcDb2dVertex
 10
82.817543
 20
115.749481
 30
0.0
  0
VERTEX
  5
EB
100
AcDbEntity
  8
0
100
AcDbVertex
100
AcDb2dVertex
 10
82.582413
 20
115.459862
 30
0.0
  0
VERTEX
  5
EC
100
AcDbEntity
  8
0
100
AcDbVertex
100
AcDb2dVertex
 10
82.437935
 20
115.119339
 30
0.0
  0
VERTEX
  5
ED
100
AcDbEntity
  8
0
100
AcDbVertex
100
AcDb2dVertex
 10
82.377052
 20
114.714943
 30
0.0
  0
VERTEX
  5
EE
100
AcDbEntity
  8
0
100
AcDbVertex
100
AcDb2dVertex
 10
82.434471
 20
114.253609
 30
0.0
  0
VERTEX
  5
EF
100
AcDbEntity
  8
0
100
AcDbVertex
100
AcDb2dVertex
 10
82.585823
 20
113.910072
 30
0.0
  0
VERTEX
  5
F0
100
AcDbEntity
  8
0
100
AcDbVertex
100
AcDb2dVertex
 10
82.827972
 20
113.641258
 30
0.0
  0
VERTEX
  5
F1
100
AcDbEntity
  8
0
100
AcDbVertex
100
AcDb2dVertex
 10
83.105171
 20
113.501961
 30
0.0
  0
VERTEX
  5
F2
100
AcDbEntity
  8
0
100
AcDbVertex
100
AcDb2dVertex
 10
83.153572
 20
113.490372
 30
0.0
  0
SEQEND
  5
F3
100
AcDbEntity
  8
0
  0
ARC
  5
F4
100
AcDbEntity
  8
0
 62
     7
100
AcDbCircle
 10
83.301521
 20
114.213219
 30
0.0
 40
0.737832
210
0.0
220
0.0
230
1.0
100
AcDbArc
 50
258.43256
 51
269.997491
  0
ELLIPSE
  5
F5
100
AcDbEntity
  8
0
 62
     7
100
AcDbEllipse
 10
178.528778
 20
54.109306
 30
0.0
 11
1.2085113525390625
 21
-0.714263916015625
 31
0.0
210
0.0
220
0.0
230
1.0
 40
0.848759
 41
4.3802380561828613
 42
5.3205885887145996
  0
POLYLINE
  5
F6
100
AcDbEntity
  8
0
 62
     7
100
AcDb2dPolyline
 66
     1
 10
0.0
 20
0.0
 30
0.0
 71
     9
  0
VERTEX
  5
F7
100
AcDbEntity
  8
0
100
AcDbVertex
100
AcDb2dVertex
 10
178.33577
 20
55.359383
 30
0.0
  0
VERTEX
  5
F8
100
AcDbEntity
  8
0
100
AcDbVertex
100
AcDb2dVertex
 10
177.964508
 20
55.308174
 30
0.0
  0
VERTEX
  5
F9
100
AcDbEntity
  8
0
100
AcDbVertex
100
AcDb2dVertex
 10
177.604309
 20
55.134235
 30
0.0
  0
VERTEX
  5
FA
100
AcDbEntity
  8
0
100
AcDbVertex
100
AcDb2dVertex
 10
177.337433
 20
54.851677
 30
0.0
  0
VERTEX
  5
FB
100
AcDbEntity
  8
0
100
AcDbVertex
100
AcDb2dVertex
 10
177.203735
 20
54.530396
 30
0.0
  0
VERTEX
  5
FC
100
AcDbEntity
  8
0
100
AcDbVertex
100
AcDb2dVertex
 10
177.186157
 20
54.140652
 30
0.0
  0
VERTEX
  5
FD
100
AcDbEntity
  8
0
100
AcDbVertex
100
AcDb2dVertex
 10
177.284409
 20
53.789795
 30
0.0
  0
VERTEX
  5
FE
100
AcDbEntity
  8
0
100
AcDbVertex
100
AcDb2dVertex
 10
177.513397
 20
53.42651
 30
0.0
  0
VERTEX
  5
FF
100
AcDbEntity
  8
0
100
AcDbVertex
100
AcDb2dVertex
 10
177.561615
 20
53.37254
 30
0.0
  0
SEQEND
  5
100
100
AcDbEntity
  8
0
  0
ELLIPSE
  5
101
100
AcDbEntity
  8
0
 62
     7
100
AcDbEllipse
 10
111.536453
 20
51.214996
 30
0.0
 11
0.5913238525390625
 21
-1.158843994140625
 31
0.0
210
0.0
220
0.0
230
1.0
 40
0.792222
 41
2.7574646472930908
 42
5.899085521697998
  0
POLYLINE
  5
102
100
AcDbEntity
  8
0
 62
     7
100
AcDb2dPolyline
 66
     1
 10
0.0
 20
0.0
 30
0.0
 71
    10
  0
VERTEX
  5
103
100
AcDbEntity
  8
0
100
AcDbVertex
100
AcDb2dVertex
 10
84.029961
 20
91.379875
 30
0.0
  0
VERTEX
  5
104
100
AcDbEntity
  8
0
100
AcDbVertex
100
AcDb2dVertex
 10
83.762512
 20
91.233124
 30
0.0
  0
VERTEX
  5
105
100
AcDbEntity
  8
0
100
AcDbVertex
100
AcDb2dVertex
 10
83.535454
 20
90.966736
 30
0.0
  0
VERTEX
  5
106
100
AcDbEntity
  8
0
100
AcDbVertex
100
AcDb2dVertex
 10
83.397697
 20
90.639084
 30
0.0
  0
VERTEX
  5
107
100
AcDbEntity
  8
0
100
AcDbVertex
100
AcDb2dVertex
 10
83.345703
 20
90.202614
 30
0.0
  0
VERTEX
  5
108
100
AcDbEntity
  8
0
100
AcDbVertex
100
AcDb2dVertex
 10
83.404037
 20
89.805115
 30
0.0
  0
VERTEX
  5
109
100
AcDbEntity
  8
0
100
AcDbVertex
100
AcDb2dVertex
 10
83.551422
 20
89.452065
 30
0.0
  0
VERTEX
  5
10A
100
AcDbEntity
  8
0
100
AcDbVertex
100
AcDb2dVertex
 10
83.797333
 20
89.147423
 30
0.0
  0
VERTEX
  5
10B
100
AcDbEntity
  8
0
100
AcDbVertex
100
AcDb2dVertex
 10
84.060081
 20
88.979202
 30
0.0
  0
VERTEX
  5
10C
100
AcDbEntity
  8
0
100
AcDbVertex
100
AcDb2dVertex
 10
84.368195
 20
88.915024
 30
0.0
  0
SEQEND
  5
10D
100
AcDbEntity
  8
0
  0
ARC
  5
10E
100
AcDbEntity
  8
0
 62
     7
100
AcDbCircle
 10
84.255699
 20
90.672829
 30
0.0
 40
0.742207
210
0.0
220
0.0
230
1.0
100
AcDbArc
 50
90.007864
 51
107.706448
  0
ELLIPSE
  5
10F
100
AcDbEntity
  8
0
 62
     7
100
AcDbEllipse
 10
157.167435
 20
43.771477
 30
0.0
 11
1.0221405029296875
 21
-0.91717529296875
 31
0.0
210
0.0
220
0.0
230
1.0
 40
0.830787
 41
4.2031264305114746
 42
5.5359187126159668
  0
POLYLINE
  5
110
100
AcDbEntity
  8
0
 62
     7
100
AcDb2dPolyline
 66
     1
 10
0.0
 20
0.0
 30
0.0
 71
     7
  0
VERTEX
  5
111
100
AcDbEntity
  8
0
100
AcDbVertex
100
AcDb2dVertex
 10
156.935532
 20
45.021545
 30
0.0
  0
VERTEX
  5
112
100
AcDbEntity
  8
0
100
AcDbVertex
100
AcDb2dVertex
 10
156.547821
 20
44.95639
 30
0.0
  0
VERTEX
  5
113
100
AcDbEntity
  8
0
100
AcDbVertex
100
AcDb2dVertex
 10
156.234726
 20
44.776081
 30
0.0
  0
VERTEX
  5
114
100
AcDbEntity
  8
0
100
AcDbVertex
100
AcDb2dVertex
 10
156.032257
 20
44.533775
 30
0.0
  0
VERTEX
  5
115
100
AcDbEntity
  8
0
100
AcDbVertex
100
AcDb2dVertex
 10
155.910431
 20
44.201378
 30
0.0
  0
VERTEX
  5
116
100
AcDbEntity
  8
0
100
AcDbVertex
100
AcDb2dVertex
 10
155.908875
 20
43.800182
 30
0.0
  0
VERTEX
  5
117
100
AcDbEntity
  8
0
100
AcDbVertex
100
AcDb2dVertex
 10
156.00383
 20
43.4772
 30
0.0
  0
SEQEND
  5
118
100
AcDbEntity
  8
0
  0
ELLIPSE
  5
119
100
AcDbEntity
  8
0
 62
     7
100
AcDbEllipse
 10
188.614639
 20
43.608093
 30
0.0
 11
1.262603759765625
 21
-0.7021560668945313
 31
0.0
210
0.0
220
0.0
230
1.0
 40
0.819041
 41
2.1671507358551025
 42
5.3086795806884766
  0
POLYLINE
  5
11A
100
AcDbEntity
  8
0
 62
     7
100
AcDb2dPolyline
 66
     1
 10
0.0
 20
0.0
 30
0.0
 71
    10
  0
VERTEX
  5
11B
100
AcDbEntity
  8
0
100
AcDbVertex
100
AcDb2dVertex
 10
73.196396
 20
98.140869
 30
0.0
  0
VERTEX
  5
11C
100
AcDbEntity
  8
0
100
AcDbVertex
100
AcDb2dVertex
 10
72.912125
 20
98.031242
 30
0.0
  0
VERTEX
  5
11D
100
AcDbEntity
  8
0
100
AcDbVertex
100
AcDb2dVertex
 10
72.694679
 20
97.829964
 30
0.0
  0
VERTEX
  5
11E
100
AcDbEntity
  8
0
100
AcDbVertex
100
AcDb2dVertex
 10
72.512573
 20
97.502167
 30
0.0
  0
VERTEX
  5
11F
100
AcDbEntity
  8
0
100
AcDbVertex
100
AcDb2dVertex
 10
72.42292
 20
97.118141
 30
0.0
  0
VERTEX
  5
120
100
AcDbEntity
  8
0
100
AcDbVertex
100
AcDb2dVertex
 10
72.439529
 20
96.643074
 30
0.0
  0
VERTEX
  5
121
100
AcDbEntity
  8
0
100
AcDbVertex
100
AcDb2dVertex
 10
72.571831
 20
96.229134
 30
0.0
  0
VERTEX
  5
122
100
AcDbEntity
  8
0
100
AcDbVertex
100
AcDb2dVertex
 10
72.804123
 20
95.896599
 30
0.0
  0
VERTEX
  5
123
100
AcDbEntity
  8
0
100
AcDbVertex
100
AcDb2dVertex
 10
73.054382
 20
95.717285
 30
0.0
  0
VERTEX
  5
124
100
AcDbEntity
  8
0
100
AcDbVertex
100
AcDb2dVertex
 10
73.354851
 20
95.647987
 30
0.0
  0
SEQEND
  5
125
100
AcDbEntity
  8
0
  0
ARC
  5
126
100
AcDbEntity
  8
0
 62
     7
100
AcDbCircle
 10
73.293236
 20
97.486237
 30
0.0
 40
0.661756
210
0.0
220
0.0
230
1.0
100
AcDbArc
 50
90.001136
 51
98.414632
  0
POLYLINE
  5
127
100
AcDbEntity
  8
0
 62
     7
100
AcDb2dPolyline
 66
     1
 10
0.0
 20
0.0
 30
0.0
 71
     9
  0
VERTEX
  5
128
100
AcDbEntity
  8
0
100
AcDbVertex
100
AcDb2dVertex
 10
79.258049
 20
137.016907
 30
0.0
  0
VERTEX
  5
129
100
AcDbEntity
  8
0
100
AcDbVertex
100
AcDb2dVertex
 10
78.943977
 20
136.947098
 30
0.0
  0
VERTEX
  5
12A
100
AcDbEntity
  8
0
100
AcDbVertex
100
AcDb2dVertex
 10
78.655914
 20
136.749222
 30
0.0
  0
VERTEX
  5
12B
100
AcDbEntity
  8
0
100
AcDbVertex
100
AcDb2dVertex
 10
78.426537
 20
136.45517
 30
0.0
  0
VERTEX
  5
12C
100
AcDbEntity
  8
0
100
AcDbVertex
100
AcDb2dVertex
 10
78.259056
 20
136.051361
 30
0.0
  0
VERTEX
  5
12D
100
AcDbEntity
  8
0
100
AcDbVertex
100
AcDb2dVertex
 10
78.201202
 20
135.568573
 30
0.0
  0
VERTEX
  5
12E
100
AcDbEntity
  8
0
100
AcDbVertex
100
AcDb2dVertex
 10
78.277809
 20
135.132065
 30
0.0
  0
VERTEX
  5
12F
100
AcDbEntity
  8
0
100
AcDbVertex
100
AcDb2dVertex
 10
78.439651
 20
134.824677
 30
0.0
  0
VERTEX
  5
130
100
AcDbEntity
  8
0
100
AcDbVertex
100
AcDb2dVertex
 10
78.656258
 20
134.623917
 30
0.0
  0
SEQEND
  5
131
100
AcDbEntity
  8
0
  0
ARC
  5
132
100
AcDbEntity
  8
0
 62
     7
100
AcDbCircle
 10
79.02449
 20
135.203094
 30
0.0
 40
0.68624
210
0.0
220
0.0
230
1.0
100
AcDbArc
 50
237.552412
 51
269.948109
  0
POLYLINE
  5
133
100
AcDbEntity
  8
0
 62
     7
100
AcDb2dPolyline
 66
     1
 10
0.0
 20
0.0
 30
0.0
 71
    10
  0
VERTEX
  5
134
100
AcDbEntity
  8
0
100
AcDbVertex
100
AcDb2dVertex
 10
73.826424
 20
117.982216
 30
0.0
  0
VERTEX
  5
135
100
AcDbEntity
  8
0
100
AcDbVertex
100
AcDb2dVertex
 10
73.547058
 20
117.923019
 30
0.0
  0
VERTEX
  5
136
100
AcDbEntity
  8
0
100
AcDbVertex
100
AcDb2dVertex
 10
73.263176
 20
117.724922
 30
0.0
  0
VERTEX
  5
137
100
AcDbEntity
  8
0
100
AcDbVertex
100
AcDb2dVertex
 10
73.040077
 20
117.410278
 30
0.0
  0
VERTEX
  5
138
100
AcDbEntity
  8
0
100
AcDbVertex
100
AcDb2dVertex
 10
72.906685
 20
117.028717
 30
0.0
  0
VERTEX
  5
139
100
AcDbEntity
  8
0
100
AcDbVertex
100
AcDb2dVertex
 10
72.870804
 20
116.592499
 30
0.0
  0
VERTEX
  5
13A
100
AcDbEntity
  8
0
100
AcDbVertex
100
AcDb2dVertex
 10
72.954826
 20
116.148293
 30
0.0
  0
VERTEX
  5
13B
100
AcDbEntity
  8
0
100
AcDbVertex
100
AcDb2dVertex
 10
73.145874
 20
115.793976
 30
0.0
  0
VERTEX
  5
13C
100
AcDbEntity
  8
0
100
AcDbVertex
100
AcDb2dVertex
 10
73.381554
 20
115.583336
 30
0.0
  0
VERTEX
  5
13D
100
AcDbEntity
  8
0
100
AcDbVertex
100
AcDb2dVertex
 10
73.596977
 20
115.4972
 30
0.0
  0
SEQEND
  5
13E
100
AcDbEntity
  8
0
  0
ARC
  5
13F
100
AcDbEntity
  8
0
 62
     7
100
AcDbCircle
 10
73.737221
 20
116.14592
 30
0.0
 40
0.663709
210
0.0
220
0.0
230
1.0
100
AcDbArc
 50
257.801184
 51
269.996603
  0
ARC
  5
140
100
AcDbEntity
  8
0
 62
     7
100
AcDbCircle
 10
202.563629
 20
57.787548
 30
0.0
 40
1.742769
210
0.0
220
0.0
230
1.0
100
AcDbArc
 50
237.228962
 51
269.654369
  0
ELLIPSE
  5
141
100
AcDbEntity
  8
0
 62
     7
100
AcDbEllipse
 10
202.371719
 20
57.295128
 30
0.0
 11
1.364227294921875
 21
-0.5318603515625
 31
0.0
210
0.0
220
0.0
230
1.0
 40
0.829186
 41
2.0102696418762207
 42
4.4733295440673828
  0
POLYLINE
  5
142
100
AcDbEntity
  8
0
 62
     7
100
AcDb2dPolyline
 66
     1
 10
0.0
 20
0.0
 30
0.0
 71
    10
  0
VERTEX
  5
143
100
AcDbEntity
  8
0
100
AcDbVertex
100
AcDb2dVertex
 10
77.367439
 20
78.781944
 30
0.0
  0
VERTEX
  5
144
100
AcDbEntity
  8
0
100
AcDbVertex
100
AcDb2dVertex
 10
77.142296
 20
78.597031
 30
0.0
  0
VERTEX
  5
145
100
AcDbEntity
  8
0
100
AcDbVertex
100
AcDb2dVertex
 10
76.966713
 20
78.303192
 30
0.0
  0
VERTEX
  5
146
100
AcDbEntity
  8
0
100
AcDbVertex
100
AcDb2dVertex
 10
76.86982
 20
77.876289
 30
0.0
  0
VERTEX
  5
147
100
AcDbEntity
  8
0
100
AcDbVertex
100
AcDb2dVertex
 10
76.904083
 20
77.395416
 30
0.0
  0
VERTEX
  5
148
100
AcDbEntity
  8
0
100
AcDbVertex
100
AcDb2dVertex
 10
77.051178
 20
76.983803
 30
0.0
  0
VERTEX
  5
149
100
AcDbEntity
  8
0
100
AcDbVertex
100
AcDb2dVertex
 10
77.266022
 20
76.675522
 30
0.0
  0
VERTEX
  5
14A
100
AcDbEntity
  8
0
100
AcDbVertex
100
AcDb2dVertex
 10
77.54425
 20
76.458824
 30
0.0
  0
VERTEX
  5
14B
100
AcDbEntity
  8
0
100
AcDbVertex
100
AcDb2dVertex
 10
77.854446
 20
76.367607
 30
0.0
  0
VERTEX
  5
14C
100
AcDbEntity
  8
0
100
AcDbVertex
100
AcDb2dVertex
 10
77.903023
 20
76.365906
 30
0.0
  0
SEQEND
  5
14D
100
AcDbEntity
  8
0
  0
ARC
  5
14E
100
AcDbEntity
  8
0
 62
     7
100
AcDbCircle
 10
77.695099
 20
78.185211
 30
0.0
 40
0.680721
210
0.0
220
0.0
230
1.0
100
AcDbArc
 50
90.036701
 51
118.771047
  0
POLYLINE
  5
14F
100
AcDbEntity
  8
0
 62
     7
100
AcDb2dPolyline
 66
     1
 10
0.0
 20
0.0
 30
0.0
 71
     9
  0
VERTEX
  5
150
100
AcDbEntity
  8
0
100
AcDbVertex
100
AcDb2dVertex
 10
86.195503
 20
61.209736
 30
0.0
  0
VERTEX
  5
151
100
AcDbEntity
  8
0
100
AcDbVertex
100
AcDb2dVertex
 10
86.026222
 20
60.945972
 30
0.0
  0
VERTEX
  5
152
100
AcDbEntity
  8
0
100
AcDbVertex
100
AcDb2dVertex
 10
85.932442
 20
60.590305
 30
0.0
  0
VERTEX
  5
153
100
AcDbEntity
  8
0
100
AcDbVertex
100
AcDb2dVertex
 10
85.948746
 20
60.128662
 30
0.0
  0
VERTEX
  5
154
100
AcDbEntity
  8
0
100
AcDbVertex
100
AcDb2dVertex
 10
86.105957
 20
59.659351
 30
0.0
  0
VERTEX
  5
155
100
AcDbEntity
  8
0
100
AcDbVertex
100
AcDb2dVertex
 10
86.35331
 20
59.301891
 30
0.0
  0
VERTEX
  5
156
100
AcDbEntity
  8
0
100
AcDbVertex
100
AcDb2dVertex
 10
86.637276
 20
59.073391
 30
0.0
  0
VERTEX
  5
157
100
AcDbEntity
  8
0
100
AcDbVertex
100
AcDb2dVertex
 10
86.95771
 20
58.958584
 30
0.0
  0
VERTEX
  5
158
100
AcDbEntity
  8
0
100
AcDbVertex
100
AcDb2dVertex
 10
87.07164
 20
58.950001
 30
0.0
  0
SEQEND
  5
159
100
AcDbEntity
  8
0
  0
ARC
  5
15A
100
AcDbEntity
  8
0
 62
     7
100
AcDbCircle
 10
86.732285
 20
60.73267
 30
0.0
 40
0.717586
210
0.0
220
0.0
230
1.0
100
AcDbArc
 50
90.109723
 51
138.370835
  0
ELLIPSE
  5
15B
100
AcDbEntity
  8
0
 62
     7
100
AcDbEllipse
 10
100.010986
 20
45.837116
 30
0.0
 11
0.54498291015625
 21
-1.181182861328125
 31
0.0
210
0.0
220
0.0
230
1.0
 40
0.75037
 41
2.8083734512329102
 42
5.9500055313110352
  0
ELLIPSE
  5
15C
100
AcDbEntity
  8
0
 62
     7
100
AcDbEllipse
 10
116.234634
 20
35.506096
 30
0.0
 11
0.7022857666015625
 21
-1.1290283203125
 31
0.0
210
0.0
220
0.0
230
1.0
 40
0.763772
 41
2.6981894969940186
 42
5.8398051261901855
  0
ELLIPSE
  5
15D
100
AcDbEntity
  8
0
 62
     7
100
AcDbEllipse
 10
134.466568
 20
29.910973
 30
0.0
 11
0.855865478515625
 21
-1.0577011108398437
 31
0.0
210
0.0
220
0.0
230
1.0
 40
0.778263
 41
2.5795843601226807
 42
5.7211790084838867
  0
ELLIPSE
  5
15E
100
AcDbEntity
  8
0
 62
     7
100
AcDbEllipse
 10
153.464325
 20
29.433044
 30
0.0
 11
1.0030670166015625
 21
-0.9643173217773438
 31
0.0
210
0.0
220
0.0
230
1.0
 40
0.792867
 41
2.4519078731536865
 42
5.5934805870056152
  0
ELLIPSE
  5
15F
100
AcDbEntity
  8
0
 62
     7
100
AcDbEllipse
 10
171.933228
 20
34.104881
 30
0.0
 11
1.1402435302734375
 21
-0.846343994140625
 31
0.0
210
0.0
220
0.0
230
1.0
 40
0.806717
 41
2.3144681453704834
 42
5.456019401550293
  0
LINE
  5
160
100
AcDbEntity
  8
0
 62
     7
 48
0.018024
100
AcDbLine
 10
124.843102
 20
14.340561
 30
0.0
 11
125.563889
 21
14.355782
 31
0.0
210
0.0
220
0.0
230
1.0
  0
ELLIPSE
  5
161
100
AcDbEntity
  8
0
 62
     7
100
AcDbEllipse
 10
150.385223
 20
105.0
 30
0.0
 11
0.0
 21
-94.5
 31
0.0
210
0.0
220
0.0
230
1.0
 40
0.957826
 41
0.0121524138376117
 42
1.1304070949554443
  0
ELLIPSE
  5
162
100
AcDbEntity
  8
0
 62
     7
100
AcDbEllipse
 10
150.385223
 20
105.0
 30
0.0
 11
0.0
 21
-94.5
 31
0.0
210
0.0
220
0.0
230
1.0
 40
0.957826
 41
1.1304070949554443
 42
2.1896867752075195
  0
ELLIPSE
  5
163
100
AcDbEntity
  8
0
 62
     7
100
AcDbEllipse
 10
150.528915
 20
105.0
 30
0.0
 11
0.0
 21
-94.5
 31
0.0
210
0.0
220
0.0
230
1.0
 40
0.957826
 41
2.1906211376190186
 42
2.2117855548858643
  0
ELLIPSE
  5
164
100
AcDbEntity
  8
0
 62
     7
100
AcDbEllipse
 10
152.684006
 20
105.000008
 30
0.0
 11
98.660903930664063
 21
-0.0001678466796875
 31
0.0
210
0.0
220
0.0
230
1.0
 40
0.957826
 41
4.7123842239379883
 42
6.9135937690734863
  0
ARC
  5
165
100
AcDbEntity
  8
0
 62
     7
100
AcDbCircle
 10
152.662842
 20
113.206108
 30
0.0
 40
102.70565
210
0.0
220
0.0
230
1.0
100
AcDbArc
 50
254.283944
 51
270.011459
  0
LINE
  5
166
100
AcDbEntity
  8
0
 62
     7
 48
0.431501
100
AcDbLine
 10
209.347321
 20
151.049896
 30
0.0
 11
223.076752
 21
161.509933
 31
0.0
210
0.0
220
0.0
230
1.0
  0
LINE
  5
167
100
AcDbEntity
  8
0
 62
     7
 48
0.003592
100
AcDbLine
 10
222.933075
 20
161.509933
 30
0.0
 11
223.076752
 21
161.509933
 31
0.0
210
0.0
220
0.0
230
1.0
  0
LINE
  5
168
100
AcDbEntity
  8
0
 62
     7
 48
0.003958
100
AcDbLine
 10
222.832321
 20
161.387833
 30
0.0
 11
222.933075
 21
161.509933
 31
0.0
210
0.0
220
0.0
230
1.0
  0
LINE
  5
169
100
AcDbEntity
  8
0
 62
     7
 48
0.021521
100
AcDbLine
 10
222.079987
 20
160.969437
 30
0.0
 11
222.832321
 21
161.387833
 31
0.0
210
0.0
220
0.0
230
1.0
  0
LINE
  5
16A
100
AcDbEntity
  8
0
 62
     7
 48
0.409205
100
AcDbLine
 10
209.059967
 20
151.049896
 30
0.0
 11
222.079987
 21
160.969437
 31
0.0
210
0.0
220
0.0
230
1.0
  0
ARC
  5
16B
100
AcDbEntity
  8
0
 62
     7
100
AcDbCircle
 10
204.685471
 20
149.304291
 30
0.0
 40
1.745948
210
0.0
220
0.0
230
1.0
100
AcDbArc
 50
90.275129
 51
120.435783
  0
ARC
  5
16C
100
AcDbEntity
  8
0
 62
     7
100
AcDbCircle
 10
216.776199
 20
149.70575
 30
0.0
 40
1.344128
210
0.0
220
0.0
230
1.0
100
AcDbArc
 50
89.880536
 51
124.77186
  0
POLYLINE
  5
16D
100
AcDbEntity
  8
0
 62
     7
100
AcDb2dPolyline
 66
     1
 10
0.0
 20
0.0
 30
0.0
 71
     9
  0
VERTEX
  5
16E
100
AcDbEntity
  8
0
100
AcDbVertex
100
AcDb2dVertex
 10
216.778992
 20
151.050003
 30
0.0
  0
VERTEX
  5
16F
100
AcDbEntity
  8
0
100
AcDbVertex
100
AcDb2dVertex
 10
217.216949
 20
150.977509
 30
0.0
  0
VERTEX
  5
170
100
AcDbEntity
  8
0
100
AcDbVertex
100
AcDb2dVertex
 10
217.607147
 20
150.766083
 30
0.0
  0
VERTEX
  5
171
100
AcDbEntity
  8
0
100
AcDbVertex
100
AcDb2dVertex
 10
217.861969
 20
150.497482
 30
0.0
  0
VERTEX
  5
172
100
AcDbEntity
  8
0
100
AcDbVertex
100
AcDb2dVertex
 10
218.026825
 20
150.166077
 30
0.0
  0
VERTEX
  5
173
100
AcDbEntity
  8
0
100
AcDbVertex
100
AcDb2dVertex
 10
218.08403
 20
149.800491
 30
0.0
  0
VERTEX
  5
174
100
AcDbEntity
  8
0
100
AcDbVertex
100
AcDb2dVertex
 10
218.02713
 20
149.434875
 30
0.0
  0
VERTEX
  5
175
100
AcDbEntity
  8
0
100
AcDbVertex
100
AcDb2dVertex
 10
217.862564
 20
149.103348
 30
0.0
  0
VERTEX
  5
176
100
AcDbEntity
  8
0
100
AcDbVertex
100
AcDb2dVertex
 10
217.548279
 20
148.790268
 30
0.0
  0
SEQEND
  5
177
100
AcDbEntity
  8
0
  0
ARC
  5
178
100
AcDbEntity
  8
0
 62
     7
100
AcDbCircle
 10
216.781799
 20
149.894257
 30
0.0
 40
1.344128
210
0.0
220
0.0
230
1.0
100
AcDbArc
 50
269.880537
 51
304.771855
  0
POLYLINE
  5
179
100
AcDbEntity
  8
0
 62
     7
100
AcDb2dPolyline
 66
     1
 10
0.0
 20
0.0
 30
0.0
 71
     9
  0
VERTEX
  5
17A
100
AcDbEntity
  8
0
100
AcDbVertex
100
AcDb2dVertex
 10
216.778992
 20
148.550003
 30
0.0
  0
VERTEX
  5
17B
100
AcDbEntity
  8
0
100
AcDbVertex
100
AcDb2dVertex
 10
216.341034
 20
148.622498
 30
0.0
  0
VERTEX
  5
17C
100
AcDbEntity
  8
0
100
AcDbVertex
100
AcDb2dVertex
 10
215.950851
 20
148.833923
 30
0.0
  0
VERTEX
  5
17D
100
AcDbEntity
  8
0
100
AcDbVertex
100
AcDb2dVertex
 10
215.696014
 20
149.102509
 30
0.0
  0
VERTEX
  5
17E
100
AcDbEntity
  8
0
100
AcDbVertex
100
AcDb2dVertex
 10
215.531189
 20
149.433929
 30
0.0
  0
VERTEX
  5
17F
100
AcDbEntity
  8
0
100
AcDbVertex
100
AcDb2dVertex
 10
215.473969
 20
149.7995
 30
0.0
  0
VERTEX
  5
180
100
AcDbEntity
  8
0
100
AcDbVertex
100
AcDb2dVertex
 10
215.530884
 20
150.165115
 30
0.0
  0
VERTEX
  5
181
100
AcDbEntity
  8
0
100
AcDbVertex
100
AcDb2dVertex
 10
215.695435
 20
150.496658
 30
0.0
  0
VERTEX
  5
182
100
AcDbEntity
  8
0
100
AcDbVertex
100
AcDb2dVertex
 10
216.009705
 20
150.809738
 30
0.0
  0
SEQEND
  5
183
100
AcDbEntity
  8
0
  0
POLYLINE
  5
184
100
AcDbEntity
  8
0
 62
     7
100
AcDb2dPolyline
 66
     1
 10
0.0
 20
0.0
 30
0.0
 71
    10
  0
VERTEX
  5
185
100
AcDbEntity
  8
0
100
AcDbVertex
100
AcDb2dVertex
 10
211.782364
 20
73.090103
 30
0.0
  0
VERTEX
  5
186
100
AcDbEntity
  8
0
100
AcDbVertex
100
AcDb2dVertex
 10
211.392975
 20
73.29216
 30
0.0
  0
VERTEX
  5
187
100
AcDbEntity
  8
0
100
AcDbVertex
100
AcDb2dVertex
 10
211.06546
 20
73.600807
 30
0.0
  0
VERTEX
  5
188
100
AcDbEntity
  8
0
100
AcDbVertex
100
AcDb2dVertex
 10
210.868332
 20
73.954597
 30
0.0
  0
VERTEX
  5
189
100
AcDbEntity
  8
0
100
AcDbVertex
100
AcDb2dVertex
 10
210.800995
 20
74.315468
 30
0.0
  0
VERTEX
  5
18A
100
AcDbEntity
  8
0
100
AcDbVertex
100
AcDb2dVertex
 10
210.842529
 20
74.624924
 30
0.0
  0
VERTEX
  5
18B
100
AcDbEntity
  8
0
100
AcDbVertex
100
AcDb2dVertex
 10
210.983368
 20
74.92247
 30
0.0
  0
VERTEX
  5
18C
100
AcDbEntity
  8
0
100
AcDbVertex
100
AcDb2dVertex
 10
211.271545
 20
75.215591
 30
0.0
  0
VERTEX
  5
18D
100
AcDbEntity
  8
0
100
AcDbVertex
100
AcDb2dVertex
 10
211.674622
 20
75.413162
 30
0.0
  0
VERTEX
  5
18E
100
AcDbEntity
  8
0
100
AcDbVertex
100
AcDb2dVertex
 10
212.150208
 20
75.483093
 30
0.0
  0
SEQEND
  5
18F
100
AcDbEntity
  8
0
  0
ARC
  5
190
100
AcDbEntity
  8
0
 62
     7
100
AcDbCircle
 10
225.238571
 20
74.128937
 30
0.0
 40
1.354134
210
0.0
220
0.0
230
1.0
100
AcDbArc
 50
67.073844
 51
90.035048
  0
POLYLINE
  5
191
100
AcDbEntity
  8
0
 62
     7
100
AcDb2dPolyline
 66
     1
 10
0.0
 20
0.0
 30
0.0
 71
    10
  0
VERTEX
  5
192
100
AcDbEntity
  8
0
100
AcDbVertex
100
AcDb2dVertex
 10
225.237747
 20
75.483093
 30
0.0
  0
VERTEX
  5
193
100
AcDbEntity
  8
0
100
AcDbVertex
100
AcDb2dVertex
 10
224.802399
 20
75.411491
 30
0.0
  0
VERTEX
  5
194
100
AcDbEntity
  8
0
100
AcDbVertex
100
AcDb2dVertex
 10
224.413895
 20
75.20253
 30
0.0
  0
VERTEX
  5
195
100
AcDbEntity
  8
0
100
AcDbVertex
100
AcDb2dVertex
 10
224.118225
 20
74.875488
 30
0.0
  0
VERTEX
  5
196
100
AcDbEntity
  8
0
100
AcDbVertex
100
AcDb2dVertex
 10
223.972107
 20
74.53791
 30
0.0
  0
VERTEX
  5
197
100
AcDbEntity
  8
0
100
AcDbVertex
100
AcDb2dVertex
 10
223.934265
 20
74.172058
 30
0.0
  0
VERTEX
  5
198
100
AcDbEntity
  8
0
100
AcDbVertex
100
AcDb2dVertex
 10
224.009003
 20
73.811951
 30
0.0
  0
VERTEX
  5
199
100
AcDbEntity
  8
0
100
AcDbVertex
100
AcDb2dVertex
 10
224.187943
 20
73.490517
 30
0.0
  0
VERTEX
  5
19A
100
AcDbEntity
  8
0
100
AcDbVertex
100
AcDb2dVertex
 10
224.51358
 20
73.193192
 30
0.0
  0
VERTEX
  5
19B
100
AcDbEntity
  8
0
100
AcDbVertex
100
AcDb2dVertex
 10
224.709427
 20
73.090103
 30
0.0
  0
SEQEND
  5
19C
100
AcDbEntity
  8
0
  0
LINE
  5
19D
100
AcDbEntity
  8
0
 62
     7
 48
0.173411
100
AcDbLine
 10
199.257599
 20
140.886948
 30
0.0
 11
193.740051
 21
136.683289
 31
0.0
210
0.0
220
0.0
230
1.0
  0
ELLIPSE
  5
19E
100
AcDbEntity
  8
0
 62
     7
100
AcDbEllipse
 10
199.273285
 20
142.136841
 30
0.0
 11
0.0
 21
-1.25
 31
0.0
210
0.0
220
0.0
230
1.0
 40
0.957826
 41
4.4155011177062988
 42
6.2700915336608887
  0
LINE
  5
19F
100
AcDbEntity
  8
0
 62
     7
 48
0.178765
100
AcDbLine
 10
192.44046
 20
138.169067
 30
0.0
 11
198.128372
 21
142.502533
 31
0.0
210
0.0
220
0.0
230
1.0
  0
ARC
  5
1A0
100
AcDbEntity
  8
0
 62
     7
100
AcDbCircle
 10
99.55545
 20
67.957413
 30
0.0
 40
1.344128
210
0.0
220
0.0
230
1.0
100
AcDbArc
 50
269.880537
 51
304.771855
  0
POLYLINE
  5
1A1
100
AcDbEntity
  8
0
 62
     7
100
AcDb2dPolyline
 66
     1
 10
0.0
 20
0.0
 30
0.0
 71
     9
  0
VERTEX
  5
1A2
100
AcDbEntity
  8
0
100
AcDbVertex
100
AcDb2dVertex
 10
99.55265
 20
66.613159
 30
0.0
  0
VERTEX
  5
1A3
100
AcDbEntity
  8
0
100
AcDbVertex
100
AcDb2dVertex
 10
99.1147
 20
66.685654
 30
0.0
  0
VERTEX
  5
1A4
100
AcDbEntity
  8
0
100
AcDbVertex
100
AcDb2dVertex
 10
98.724503
 20
66.897079
 30
0.0
  0
VERTEX
  5
1A5
100
AcDbEntity
  8
0
100
AcDbVertex
100
AcDb2dVertex
 10
98.469673
 20
67.16568
 30
0.0
  0
VERTEX
  5
1A6
100
AcDbEntity
  8
0
100
AcDbVertex
100
AcDb2dVertex
 10
98.30484
 20
67.497078
 30
0.0
  0
VERTEX
  5
1A7
100
AcDbEntity
  8
0
100
AcDbVertex
100
AcDb2dVertex
 10
98.24762
 20
67.862663
 30
0.0
  0
VERTEX
  5
1A8
100
AcDbEntity
  8
0
100
AcDbVertex
100
AcDb2dVertex
 10
98.304535
 20
68.228271
 30
0.0
  0
VERTEX
  5
1A9
100
AcDbEntity
  8
0
100
AcDbVertex
100
AcDb2dVertex
 10
98.469086
 20
68.559814
 30
0.0
  0
VERTEX
  5
1AA
100
AcDbEntity
  8
0
100
AcDbVertex
100
AcDb2dVertex
 10
98.783371
 20
68.872894
 30
0.0
  0
SEQEND
  5
1AB
100
AcDbEntity
  8
0
  0
ARC
  5
1AC
100
AcDbEntity
  8
0
 62
     7
100
AcDbCircle
 10
99.549866
 20
67.768944
 30
0.0
 40
1.344099
210
0.0
220
0.0
230
1.0
100
AcDbArc
 50
89.880877
 51
124.772967
  0
POLYLINE
  5
1AD
100
AcDbEntity
  8
0
 62
     7
100
AcDb2dPolyline
 66
     1
 10
0.0
 20
0.0
 30
0.0
 71
     9
  0
VERTEX
  5
1AE
100
AcDbEntity
  8
0
100
AcDbVertex
100
AcDb2dVertex
 10
99.552658
 20
69.113159
 30
0.0
  0
VERTEX
  5
1AF
100
AcDbEntity
  8
0
100
AcDbVertex
100
AcDb2dVertex
 10
99.946396
 20
69.054901
 30
0.0
  0
VERTEX
  5
1B0
100
AcDbEntity
  8
0
100
AcDbVertex
100
AcDb2dVertex
 10
100.305801
 20
68.883995
 30
0.0
  0
VERTEX
  5
1B1
100
AcDbEntity
  8
0
100
AcDbVertex
100
AcDb2dVertex
 10
100.596909
 20
68.612869
 30
0.0
  0
VERTEX
  5
1B2
100
AcDbEntity
  8
0
100
AcDbVertex
100
AcDb2dVertex
 10
100.78862
 20
68.26445
 30
0.0
  0
VERTEX
  5
1B3
100
AcDbEntity
  8
0
100
AcDbVertex
100
AcDb2dVertex
 10
100.857651
 20
67.87294
 30
0.0
  0
VERTEX
  5
1B4
100
AcDbEntity
  8
0
100
AcDbVertex
100
AcDb2dVertex
 10
100.794998
 20
67.480385
 30
0.0
  0
VERTEX
  5
1B5
100
AcDbEntity
  8
0
100
AcDbVertex
100
AcDb2dVertex
 10
100.608864
 20
67.128967
 30
0.0
  0
VERTEX
  5
1B6
100
AcDbEntity
  8
0
100
AcDbVertex
100
AcDb2dVertex
 10
100.321945
 20
66.853424
 30
0.0
  0
SEQEND
  5
1B7
100
AcDbEntity
  8
0
  0
POLYLINE
  5
1B8
100
AcDbEntity
  8
0
 62
     7
100
AcDb2dPolyline
 66
     1
 10
0.0
 20
0.0
 30
0.0
 71
     6
  0
VERTEX
  5
1B9
100
AcDbEntity
  8
0
100
AcDbVertex
100
AcDb2dVertex
 10
143.819809
 20
42.562222
 30
0.0
  0
VERTEX
  5
1BA
100
AcDbEntity
  8
0
100
AcDbVertex
100
AcDb2dVertex
 10
143.702194
 20
42.204903
 30
0.0
  0
VERTEX
  5
1BB
100
AcDbEntity
  8
0
100
AcDbVertex
100
AcDb2dVertex
 10
143.48201
 20
41.899765
 30
0.0
  0
VERTEX
  5
1BC
100
AcDbEntity
  8
0
100
AcDbVertex
100
AcDb2dVertex
 10
143.182144
 20
41.672222
 30
0.0
  0
VERTEX
  5
1BD
100
AcDbEntity
  8
0
100
AcDbVertex
100
AcDb2dVertex
 10
142.756012
 20
41.524006
 30
0.0
  0
VERTEX
  5
1BE
100
AcDbEntity
  8
0
100
AcDbVertex
100
AcDb2dVertex
 10
142.530411
 20
41.505188
 30
0.0
  0
SEQEND
  5
1BF
100
AcDbEntity
  8
0
  0
POLYLINE
  5
1C0
100
AcDbEntity
  8
0
 62
     7
100
AcDb2dPolyline
 66
     1
 10
0.0
 20
0.0
 30
0.0
 71
     7
  0
VERTEX
  5
1C1
100
AcDbEntity
  8
0
100
AcDbVertex
100
AcDb2dVertex
 10
142.530411
 20
41.505188
 30
0.0
  0
VERTEX
  5
1C2
100
AcDbEntity
  8
0
100
AcDbVertex
100
AcDb2dVertex
 10
142.083496
 20
41.580772
 30
0.0
  0
VERTEX
  5
1C3
100
AcDbEntity
  8
0
100
AcDbVertex
100
AcDb2dVertex
 10
141.747818
 20
41.754879
 30
0.0
  0
VERTEX
  5
1C4
100
AcDbEntity
  8
0
100
AcDbVertex
100
AcDb2dVertex
 10
141.47641
 20
42.018093
 30
0.0
  0
VERTEX
  5
1C5
100
AcDbEntity
  8
0
100
AcDbVertex
100
AcDb2dVertex
 10
141.295822
 20
42.350075
 30
0.0
  0
VERTEX
  5
1C6
100
AcDbEntity
  8
0
100
AcDbVertex
100
AcDb2dVertex
 10
141.225861
 20
42.721355
 30
0.0
  0
VERTEX
  5
1C7
100
AcDbEntity
  8
0
100
AcDbVertex
100
AcDb2dVertex
 10
141.241028
 20
42.948151
 30
0.0
  0
SEQEND
  5
1C8
100
AcDbEntity
  8
0
  0
POLYLINE
  5
1C9
100
AcDbEntity
  8
0
 62
     7
100
AcDb2dPolyline
 66
     1
 10
0.0
 20
0.0
 30
0.0
 71
     6
  0
VERTEX
  5
1CA
100
AcDbEntity
  8
0
100
AcDbVertex
100
AcDb2dVertex
 10
141.241028
 20
42.948151
 30
0.0
  0
VERTEX
  5
1CB
100
AcDbEntity
  8
0
100
AcDbVertex
100
AcDb2dVertex
 10
141.358643
 20
43.30547
 30
0.0
  0
VERTEX
  5
1CC
100
AcDbEntity
  8
0
100
AcDbVertex
100
AcDb2dVertex
 10
141.578827
 20
43.610607
 30
0.0
  0
VERTEX
  5
1CD
100
AcDbEntity
  8
0
100
AcDbVertex
100
AcDb2dVertex
 10
141.878677
 20
43.83815
 30
0.0
  0
VERTEX
  5
1CE
100
AcDbEntity
  8
0
100
AcDbVertex
100
AcDb2dVertex
 10
142.304825
 20
43.98637
 30
0.0
  0
VERTEX
  5
1CF
100
AcDbEntity
  8
0
100
AcDbVertex
100
AcDb2dVertex
 10
142.530411
 20
44.005184
 30
0.0
  0
SEQEND
  5
1D0
100
AcDbEntity
  8
0
  0
POLYLINE
  5
1D1
100
AcDbEntity
  8
0
 62
     7
100
AcDb2dPolyline
 66
     1
 10
0.0
 20
0.0
 30
0.0
 71
     7
  0
VERTEX
  5
1D2
100
AcDbEntity
  8
0
100
AcDbVertex
100
AcDb2dVertex
 10
142.530411
 20
44.005184
 30
0.0
  0
VERTEX
  5
1D3
100
AcDbEntity
  8
0
100
AcDbVertex
100
AcDb2dVertex
 10
142.977341
 20
43.9296
 30
0.0
  0
VERTEX
  5
1D4
100
AcDbEntity
  8
0
100
AcDbVertex
100
AcDb2dVertex
 10
143.313004
 20
43.755493
 30
0.0
  0
VERTEX
  5
1D5
100
AcDbEntity
  8
0
100
AcDbVertex
100
AcDb2dVertex
 10
143.584412
 20
43.492283
 30
0.0
  0
VERTEX
  5
1D6
100
AcDbEntity
  8
0
100
AcDbVertex
100
AcDb2dVertex
 10
143.765015
 20
43.160297
 30
0.0
  0
VERTEX
  5
1D7
100
AcDbEntity
  8
0
100
AcDbVertex
100
AcDb2dVertex
 10
143.834976
 20
42.789017
 30
0.0
  0
VERTEX
  5
1D8
100
AcDbEntity
  8
0
100
AcDbVertex
100
AcDb2dVertex
 10
143.819809
 20
42.562222
 30
0.0
  0
SEQEND
  5
1D9
100
AcDbEntity
  8
0
  0
POLYLINE
  5
1DA
100
AcDbEntity
  8
0
 62
     7
100
AcDb2dPolyline
 66
     1
 10
0.0
 20
0.0
 30
0.0
 71
     5
  0
VERTEX
  5
1DB
100
AcDbEntity
  8
0
100
AcDbVertex
100
AcDb2dVertex
 10
119.548592
 20
50.56414
 30
0.0
  0
VERTEX
  5
1DC
100
AcDbEntity
  8
0
100
AcDbVertex
100
AcDb2dVertex
 10
119.293304
 20
50.273895
 30
0.0
  0
VERTEX
  5
1DD
100
AcDbEntity
  8
0
100
AcDbVertex
100
AcDb2dVertex
 10
118.963356
 20
50.0723
 30
0.0
  0
VERTEX
  5
1DE
100
AcDbEntity
  8
0
100
AcDbVertex
100
AcDb2dVertex
 10
118.589355
 20
49.973877
 30
0.0
  0
VERTEX
  5
1DF
100
AcDbEntity
  8
0
100
AcDbVertex
100
AcDb2dVertex
 10
118.434441
 20
49.965038
 30
0.0
  0
SEQEND
  5
1E0
100
AcDbEntity
  8
0
  0
POLYLINE
  5
1E1
100
AcDbEntity
  8
0
 62
     7
100
AcDb2dPolyline
 66
     1
 10
0.0
 20
0.0
 30
0.0
 71
     8
  0
VERTEX
  5
1E2
100
AcDbEntity
  8
0
100
AcDbVertex
100
AcDb2dVertex
 10
118.434441
 20
49.965038
 30
0.0
  0
VERTEX
  5
1E3
100
AcDbEntity
  8
0
100
AcDbVertex
100
AcDb2dVertex
 10
117.993469
 20
50.038559
 30
0.0
  0
VERTEX
  5
1E4
100
AcDbEntity
  8
0
100
AcDbVertex
100
AcDb2dVertex
 10
117.601257
 20
50.252949
 30
0.0
  0
VERTEX
  5
1E5
100
AcDbEntity
  8
0
100
AcDbVertex
100
AcDb2dVertex
 10
117.34626
 20
50.525013
 30
0.0
  0
VERTEX
  5
1E6
100
AcDbEntity
  8
0
100
AcDbVertex
100
AcDb2dVertex
 10
117.183105
 20
50.860161
 30
0.0
  0
VERTEX
  5
1E7
100
AcDbEntity
  8
0
100
AcDbVertex
100
AcDb2dVertex
 10
117.129486
 20
51.228973
 30
0.0
  0
VERTEX
  5
1E8
100
AcDbEntity
  8
0
100
AcDbVertex
100
AcDb2dVertex
 10
117.191635
 20
51.596439
 30
0.0
  0
VERTEX
  5
1E9
100
AcDbEntity
  8
0
100
AcDbVertex
100
AcDb2dVertex
 10
117.32029
 20
51.865932
 30
0.0
  0
SEQEND
  5
1EA
100
AcDbEntity
  8
0
  0
POLYLINE
  5
1EB
100
AcDbEntity
  8
0
 62
     7
100
AcDb2dPolyline
 66
     1
 10
0.0
 20
0.0
 30
0.0
 71
     5
  0
VERTEX
  5
1EC
100
AcDbEntity
  8
0
100
AcDbVertex
100
AcDb2dVertex
 10
117.32029
 20
51.865932
 30
0.0
  0
VERTEX
  5
1ED
100
AcDbEntity
  8
0
100
AcDbVertex
100
AcDb2dVertex
 10
117.575577
 20
52.156178
 30
0.0
  0
VERTEX
  5
1EE
100
AcDbEntity
  8
0
100
AcDbVertex
100
AcDb2dVertex
 10
117.905533
 20
52.357773
 30
0.0
  0
VERTEX
  5
1EF
100
AcDbEntity
  8
0
100
AcDbVertex
100
AcDb2dVertex
 10
118.279526
 20
52.456196
 30
0.0
  0
VERTEX
  5
1F0
100
AcDbEntity
  8
0
100
AcDbVertex
100
AcDb2dVertex
 10
118.434441
 20
52.465034
 30
0.0
  0
SEQEND
  5
1F1
100
AcDbEntity
  8
0
  0
POLYLINE
  5
1F2
100
AcDbEntity
  8
0
 62
     7
100
AcDb2dPolyline
 66
     1
 10
0.0
 20
0.0
 30
0.0
 71
     8
  0
VERTEX
  5
1F3
100
AcDbEntity
  8
0
100
AcDbVertex
100
AcDb2dVertex
 10
118.434441
 20
52.465034
 30
0.0
  0
VERTEX
  5
1F4
100
AcDbEntity
  8
0
100
AcDbVertex
100
AcDb2dVertex
 10
118.875412
 20
52.391514
 30
0.0
  0
VERTEX
  5
1F5
100
AcDbEntity
  8
0
100
AcDbVertex
100
AcDb2dVertex
 10
119.267624
 20
52.177124
 30
0.0
  0
VERTEX
  5
1F6
100
AcDbEntity
  8
0
100
AcDbVertex
100
AcDb2dVertex
 10
119.522621
 20
51.905056
 30
0.0
  0
VERTEX
  5
1F7
100
AcDbEntity
  8
0
100
AcDbVertex
100
AcDb2dVertex
 10
119.685776
 20
51.569912
 30
0.0
  0
VERTEX
  5
1F8
100
AcDbEntity
  8
0
100
AcDbVertex
100
AcDb2dVertex
 10
119.739395
 20
51.201096
 30
0.0
  0
VERTEX
  5
1F9
100
AcDbEntity
  8
0
100
AcDbVertex
100
AcDb2dVertex
 10
119.677246
 20
50.83363
 30
0.0
  0
VERTEX
  5
1FA
100
AcDbEntity
  8
0
100
AcDbVertex
100
AcDb2dVertex
 10
119.548592
 20
50.56414
 30
0.0
  0
SEQEND
  5
1FB
100
AcDbEntity
  8
0
  0
ARC
  5
1FC
100
AcDbEntity
  8
0
 62
     7
100
AcDbCircle
 10
88.759811
 20
90.274673
 30
0.0
 40
1.359643
210
0.0
220
0.0
230
1.0
100
AcDbArc
 50
269.992505
 51
283.055221
  0
POLYLINE
  5
1FD
100
AcDbEntity
  8
0
 62
     7
100
AcDb2dPolyline
 66
     1
 10
0.0
 20
0.0
 30
0.0
 71
    10
  0
VERTEX
  5
1FE
100
AcDbEntity
  8
0
100
AcDbVertex
100
AcDb2dVertex
 10
88.759628
 20
88.915031
 30
0.0
  0
VERTEX
  5
1FF
100
AcDbEntity
  8
0
100
AcDbVertex
100
AcDb2dVertex
 10
88.322983
 20
88.987076
 30
0.0
  0
VERTEX
  5
200
100
AcDbEntity
  8
0
100
AcDbVertex
100
AcDb2dVertex
 10
87.933685
 20
89.197227
 30
0.0
  0
VERTEX
  5
201
100
AcDbEntity
  8
0
100
AcDbVertex
100
AcDb2dVertex
 10
87.637993
 20
89.526047
 30
0.0
  0
VERTEX
  5
202
100
AcDbEntity
  8
0
100
AcDbVertex
100
AcDb2dVertex
 10
87.492706
 20
89.865173
 30
0.0
  0
VERTEX
  5
203
100
AcDbEntity
  8
0
100
AcDbVertex
100
AcDb2dVertex
 10
87.456482
 20
90.232254
 30
0.0
  0
VERTEX
  5
204
100
AcDbEntity
  8
0
100
AcDbVertex
100
AcDb2dVertex
 10
87.533493
 20
90.59304
 30
0.0
  0
VERTEX
  5
205
100
AcDbEntity
  8
0
100
AcDbVertex
100
AcDb2dVertex
 10
87.715027
 20
90.914284
 30
0.0
  0
VERTEX
  5
206
100
AcDbEntity
  8
0
100
AcDbVertex
100
AcDb2dVertex
 10
88.043732
 20
91.210159
 30
0.0
  0
VERTEX
  5
207
100
AcDbEntity
  8
0
100
AcDbVertex
100
AcDb2dVertex
 10
88.452332
 20
91.379875
 30
0.0
  0
SEQEND
  5
208
100
AcDbEntity
  8
0
  0
ARC
  5
209
100
AcDbEntity
  8
0
 62
     7
100
AcDbCircle
 10
88.75946
 20
90.055382
 30
0.0
 40
1.359643
210
0.0
220
0.0
230
1.0
100
AcDbArc
 50
89.992503
 51
103.055219
  0
POLYLINE
  5
20A
100
AcDbEntity
  8
0
 62
     7
100
AcDb2dPolyline
 66
     1
 10
0.0
 20
0.0
 30
0.0
 71
    10
  0
VERTEX
  5
20B
100
AcDbEntity
  8
0
100
AcDbVertex
100
AcDb2dVertex
 10
88.759644
 20
91.415024
 30
0.0
  0
VERTEX
  5
20C
100
AcDbEntity
  8
0
100
AcDbVertex
100
AcDb2dVertex
 10
89.196289
 20
91.342987
 30
0.0
  0
VERTEX
  5
20D
100
AcDbEntity
  8
0
100
AcDbVertex
100
AcDb2dVertex
 10
89.585587
 20
91.132828
 30
0.0
  0
VERTEX
  5
20E
100
AcDbEntity
  8
0
100
AcDbVertex
100
AcDb2dVertex
 10
89.881279
 20
90.804008
 30
0.0
  0
VERTEX
  5
20F
100
AcDbEntity
  8
0
100
AcDbVertex
100
AcDb2dVertex
 10
90.026566
 20
90.464882
 30
0.0
  0
VERTEX
  5
210
100
AcDbEntity
  8
0
100
AcDbVertex
100
AcDb2dVertex
 10
90.06279
 20
90.097801
 30
0.0
  0
VERTEX
  5
211
100
AcDbEntity
  8
0
100
AcDbVertex
100
AcDb2dVertex
 10
89.985779
 20
89.737015
 30
0.0
  0
VERTEX
  5
212
100
AcDbEntity
  8
0
100
AcDbVertex
100
AcDb2dVertex
 10
89.804245
 20
89.415771
 30
0.0
  0
VERTEX
  5
213
100
AcDbEntity
  8
0
100
AcDbVertex
100
AcDb2dVertex
 10
89.47554
 20
89.119896
 30
0.0
  0
VERTEX
  5
214
100
AcDbEntity
  8
0
100
AcDbVertex
100
AcDb2dVertex
 10
89.06694
 20
88.95018
 30
0.0
  0
SEQEND
  5
215
100
AcDbEntity
  8
0
  0
ARC
  5
216
100
AcDbEntity
  8
0
 62
     7
100
AcDbCircle
 10
73.789879
 20
97.009796
 30
0.0
 40
1.361805
210
0.0
220
0.0
230
1.0
100
AcDbArc
 50
269.99898
 51
275.862561
  0
POLYLINE
  5
217
100
AcDbEntity
  8
0
 62
     7
100
AcDb2dPolyline
 66
     1
 10
0.0
 20
0.0
 30
0.0
 71
    11
  0
VERTEX
  5
218
100
AcDbEntity
  8
0
100
AcDbVertex
100
AcDb2dVertex
 10
73.789856
 20
95.647987
 30
0.0
  0
VERTEX
  5
219
100
AcDbEntity
  8
0
100
AcDbVertex
100
AcDb2dVertex
 10
73.358734
 20
95.71817
 30
0.0
  0
VERTEX
  5
21A
100
AcDbEntity
  8
0
100
AcDbVertex
100
AcDb2dVertex
 10
72.973152
 20
95.923019
 30
0.0
  0
VERTEX
  5
21B
100
AcDbEntity
  8
0
100
AcDbVertex
100
AcDb2dVertex
 10
72.677567
 20
96.244171
 30
0.0
  0
VERTEX
  5
21C
100
AcDbEntity
  8
0
100
AcDbVertex
100
AcDb2dVertex
 10
72.511292
 20
96.647484
 30
0.0
  0
VERTEX
  5
21D
100
AcDbEntity
  8
0
100
AcDbVertex
100
AcDb2dVertex
 10
72.49015
 20
97.010895
 30
0.0
  0
VERTEX
  5
21E
100
AcDbEntity
  8
0
100
AcDbVertex
100
AcDb2dVertex
 10
72.578903
 20
97.364014
 30
0.0
  0
VERTEX
  5
21F
100
AcDbEntity
  8
0
100
AcDbVertex
100
AcDb2dVertex
 10
72.816132
 20
97.730247
 30
0.0
  0
VERTEX
  5
220
100
AcDbEntity
  8
0
100
AcDbVertex
100
AcDb2dVertex
 10
73.163513
 20
97.994621
 30
0.0
  0
VERTEX
  5
221
100
AcDbEntity
  8
0
100
AcDbVertex
100
AcDb2dVertex
 10
73.578239
 20
98.131447
 30
0.0
  0
VERTEX
  5
222
100
AcDbEntity
  8
0
100
AcDbVertex
100
AcDb2dVertex
 10
73.650726
 20
98.140869
 30
0.0
  0
SEQEND
  5
223
100
AcDbEntity
  8
0
  0
ARC
  5
224
100
AcDbEntity
  8
0
 62
     7
100
AcDbCircle
 10
73.789825
 20
96.786186
 30
0.0
 40
1.361805
210
0.0
220
0.0
230
1.0
100
AcDbArc
 50
89.998978
 51
95.862559
  0
POLYLINE
  5
225
100
AcDbEntity
  8
0
 62
     7
100
AcDb2dPolyline
 66
     1
 10
0.0
 20
0.0
 30
0.0
 71
    11
  0
VERTEX
  5
226
100
AcDbEntity
  8
0
100
AcDbVertex
100
AcDb2dVertex
 10
73.789848
 20
98.147987
 30
0.0
  0
VERTEX
  5
227
100
AcDbEntity
  8
0
100
AcDbVertex
100
AcDb2dVertex
 10
74.220963
 20
98.077812
 30
0.0
  0
VERTEX
  5
228
100
AcDbEntity
  8
0
100
AcDbVertex
100
AcDb2dVertex
 10
74.606552
 20
97.872963
 30
0.0
  0
VERTEX
  5
229
100
AcDbEntity
  8
0
100
AcDbVertex
100
AcDb2dVertex
 10
74.902138
 20
97.551804
 30
0.0
  0
VERTEX
  5
22A
100
AcDbEntity
  8
0
100
AcDbVertex
100
AcDb2dVertex
 10
75.068413
 20
97.148499
 30
0.0
  0
VERTEX
  5
22B
100
AcDbEntity
  8
0
100
AcDbVertex
100
AcDb2dVertex
 10
75.089554
 20
96.78508
 30
0.0
  0
VERTEX
  5
22C
100
AcDbEntity
  8
0
100
AcDbVertex
100
AcDb2dVertex
 10
75.000801
 20
96.431961
 30
0.0
  0
VERTEX
  5
22D
100
AcDbEntity
  8
0
100
AcDbVertex
100
AcDb2dVertex
 10
74.763573
 20
96.065735
 30
0.0
  0
VERTEX
  5
22E
100
AcDbEntity
  8
0
100
AcDbVertex
100
AcDb2dVertex
 10
74.416191
 20
95.801361
 30
0.0
  0
VERTEX
  5
22F
100
AcDbEntity
  8
0
100
AcDbVertex
100
AcDb2dVertex
 10
74.001457
 20
95.664536
 30
0.0
  0
VERTEX
  5
230
100
AcDbEntity
  8
0
100
AcDbVertex
100
AcDb2dVertex
 10
73.928978
 20
95.655113
 30
0.0
  0
SEQEND
  5
231
100
AcDbEntity
  8
0
  0
ARC
  5
232
100
AcDbEntity
  8
0
 62
     7
100
AcDbCircle
 10
78.667976
 20
77.721817
 30
0.0
 40
1.355894
210
0.0
220
0.0
230
1.0
100
AcDbArc
 50
269.993782
 51
290.265695
  0
POLYLINE
  5
233
100
AcDbEntity
  8
0
 62
     7
100
AcDb2dPolyline
 66
     1
 10
0.0
 20
0.0
 30
0.0
 71
    10
  0
VERTEX
  5
234
100
AcDbEntity
  8
0
100
AcDbVertex
100
AcDb2dVertex
 10
78.667831
 20
76.365906
 30
0.0
  0
VERTEX
  5
235
100
AcDbEntity
  8
0
100
AcDbVertex
100
AcDb2dVertex
 10
78.258446
 20
76.428864
 30
0.0
  0
VERTEX
  5
236
100
AcDbEntity
  8
0
100
AcDbVertex
100
AcDb2dVertex
 10
77.887741
 20
76.613495
 30
0.0
  0
VERTEX
  5
237
100
AcDbEntity
  8
0
100
AcDbVertex
100
AcDb2dVertex
 10
77.593903
 20
76.905083
 30
0.0
  0
VERTEX
  5
238
100
AcDbEntity
  8
0
100
AcDbVertex
100
AcDb2dVertex
 10
77.411407
 20
77.276428
 30
0.0
  0
VERTEX
  5
239
100
AcDbEntity
  8
0
100
AcDbVertex
100
AcDb2dVertex
 10
77.364487
 20
77.687431
 30
0.0
  0
VERTEX
  5
23A
100
AcDbEntity
  8
0
100
AcDbVertex
100
AcDb2dVertex
 10
77.459854
 20
78.089973
 30
0.0
  0
VERTEX
  5
23B
100
AcDbEntity
  8
0
100
AcDbVertex
100
AcDb2dVertex
 10
77.684097
 20
78.437775
 30
0.0
  0
VERTEX
  5
23C
100
AcDbEntity
  8
0
100
AcDbVertex
100
AcDb2dVertex
 10
78.008583
 20
78.694931
 30
0.0
  0
VERTEX
  5
23D
100
AcDbEntity
  8
0
100
AcDbVertex
100
AcDb2dVertex
 10
78.197159
 20
78.781944
 30
0.0
  0
SEQEND
  5
23E
100
AcDbEntity
  8
0
  0
ARC
  5
23F
100
AcDbEntity
  8
0
 62
     7
100
AcDbCircle
 10
78.666801
 20
77.509995
 30
0.0
 40
1.355894
210
0.0
220
0.0
230
1.0
100
AcDbArc
 50
89.993787
 51
110.2657
  0
POLYLINE
  5
240
100
AcDbEntity
  8
0
 62
     7
100
AcDb2dPolyline
 66
     1
 10
0.0
 20
0.0
 30
0.0
 71
    10
  0
VERTEX
  5
241
100
AcDbEntity
  8
0
100
AcDbVertex
100
AcDb2dVertex
 10
78.666954
 20
78.865906
 30
0.0
  0
VERTEX
  5
242
100
AcDbEntity
  8
0
100
AcDbVertex
100
AcDb2dVertex
 10
79.076332
 20
78.802948
 30
0.0
  0
VERTEX
  5
243
100
AcDbEntity
  8
0
100
AcDbVertex
100
AcDb2dVertex
 10
79.447037
 20
78.618317
 30
0.0
  0
VERTEX
  5
244
100
AcDbEntity
  8
0
100
AcDbVertex
100
AcDb2dVertex
 10
79.740883
 20
78.326729
 30
0.0
  0
VERTEX
  5
245
100
AcDbEntity
  8
0
100
AcDbVertex
100
AcDb2dVertex
 10
79.92337
 20
77.955383
 30
0.0
  0
VERTEX
  5
246
100
AcDbEntity
  8
0
100
AcDbVertex
100
AcDb2dVertex
 10
79.970291
 20
77.544373
 30
0.0
  0
VERTEX
  5
247
100
AcDbEntity
  8
0
100
AcDbVertex
100
AcDb2dVertex
 10
79.874931
 20
77.141838
 30
0.0
  0
VERTEX
  5
248
100
AcDbEntity
  8
0
100
AcDbVertex
100
AcDb2dVertex
 10
79.650681
 20
76.794037
 30
0.0
  0
VERTEX
  5
249
100
AcDbEntity
  8
0
100
AcDbVertex
100
AcDb2dVertex
 10
79.326202
 20
76.536873
 30
0.0
  0
VERTEX
  5
24A
100
AcDbEntity
  8
0
100
AcDbVertex
100
AcDb2dVertex
 10
79.137619
 20
76.449867
 30
0.0
  0
SEQEND
  5
24B
100
AcDbEntity
  8
0
  0
ARC
  5
24C
100
AcDbEntity
  8
0
 62
     7
100
AcDbCircle
 10
88.591843
 20
60.29425
 30
0.0
 40
1.344128
210
0.0
220
0.0
230
1.0
100
AcDbArc
 50
269.880537
 51
304.771855
  0
POLYLINE
  5
24D
100
AcDbEntity
  8
0
 62
     7
100
AcDb2dPolyline
 66
     1
 10
0.0
 20
0.0
 30
0.0
 71
     9
  0
VERTEX
  5
24E
100
AcDbEntity
  8
0
100
AcDbVertex
100
AcDb2dVertex
 10
88.589035
 20
58.950001
 30
0.0
  0
VERTEX
  5
24F
100
AcDbEntity
  8
0
100
AcDbVertex
100
AcDb2dVertex
 10
88.151077
 20
59.022491
 30
0.0
  0
VERTEX
  5
250
100
AcDbEntity
  8
0
100
AcDbVertex
100
AcDb2dVertex
 10
87.760895
 20
59.233925
 30
0.0
  0
VERTEX
  5
251
100
AcDbEntity
  8
0
100
AcDbVertex
100
AcDb2dVertex
 10
87.506058
 20
59.502518
 30
0.0
  0
VERTEX
  5
252
100
AcDbEntity
  8
0
100
AcDbVertex
100
AcDb2dVertex
 10
87.341217
 20
59.83392
 30
0.0
  0
VERTEX
  5
253
100
AcDbEntity
  8
0
100
AcDbVertex
100
AcDb2dVertex
 10
87.284004
 20
60.199505
 30
0.0
  0
VERTEX
  5
254
100
AcDbEntity
  8
0
100
AcDbVertex
100
AcDb2dVertex
 10
87.340912
 20
60.565117
 30
0.0
  0
VERTEX
  5
255
100
AcDbEntity
  8
0
100
AcDbVertex
100
AcDb2dVertex
 10
87.505478
 20
60.896656
 30
0.0
  0
VERTEX
  5
256
100
AcDbEntity
  8
0
100
AcDbVertex
100
AcDb2dVertex
 10
87.819756
 20
61.209736
 30
0.0
  0
SEQEND
  5
257
100
AcDbEntity
  8
0
  0
ARC
  5
258
100
AcDbEntity
  8
0
 62
     7
100
AcDbCircle
 10
88.586243
 20
60.105751
 30
0.0
 40
1.344128
210
0.0
220
0.0
230
1.0
100
AcDbArc
 50
89.880536
 51
124.77186
  0
POLYLINE
  5
259
100
AcDbEntity
  8
0
 62
     7
100
AcDb2dPolyline
 66
     1
 10
0.0
 20
0.0
 30
0.0
 71
     9
  0
VERTEX
  5
25A
100
AcDbEntity
  8
0
100
AcDbVertex
100
AcDb2dVertex
 10
88.589043
 20
61.450001
 30
0.0
  0
VERTEX
  5
25B
100
AcDbEntity
  8
0
100
AcDbVertex
100
AcDb2dVertex
 10
89.026993
 20
61.377506
 30
0.0
  0
VERTEX
  5
25C
100
AcDbEntity
  8
0
100
AcDbVertex
100
AcDb2dVertex
 10
89.417191
 20
61.166073
 30
0.0
  0
VERTEX
  5
25D
100
AcDbEntity
  8
0
100
AcDbVertex
100
AcDb2dVertex
 10
89.67202
 20
60.897484
 30
0.0
  0
VERTEX
  5
25E
100
AcDbEntity
  8
0
100
AcDbVertex
100
AcDb2dVertex
 10
89.836853
 20
60.566078
 30
0.0
  0
VERTEX
  5
25F
100
AcDbEntity
  8
0
100
AcDbVertex
100
AcDb2dVertex
 10
89.894073
 20
60.200497
 30
0.0
  0
VERTEX
  5
260
100
AcDbEntity
  8
0
100
AcDbVertex
100
AcDb2dVertex
 10
89.837166
 20
59.834881
 30
0.0
  0
VERTEX
  5
261
100
AcDbEntity
  8
0
100
AcDbVertex
100
AcDb2dVertex
 10
89.672607
 20
59.503342
 30
0.0
  0
VERTEX
  5
262
100
AcDbEntity
  8
0
100
AcDbVertex
100
AcDb2dVertex
 10
89.358322
 20
59.190266
 30
0.0
  0
SEQEND
  5
263
100
AcDbEntity
  8
0
  0
ARC
  5
264
100
AcDbEntity
  8
0
 62
     7
100
AcDbCircle
 10
102.886169
 20
45.915543
 30
0.0
 40
1.327899
210
0.0
220
0.0
230
1.0
100
AcDbArc
 50
269.675912
 51
319.442152
  0
POLYLINE
  5
265
100
AcDbEntity
  8
0
 62
     7
100
AcDb2dPolyline
 66
     1
 10
0.0
 20
0.0
 30
0.0
 71
     9
  0
VERTEX
  5
266
100
AcDbEntity
  8
0
100
AcDbVertex
100
AcDb2dVertex
 10
102.878662
 20
44.587143
 30
0.0
  0
VERTEX
  5
267
100
AcDbEntity
  8
0
100
AcDbVertex
100
AcDb2dVertex
 10
102.435211
 20
44.661518
 30
0.0
  0
VERTEX
  5
268
100
AcDbEntity
  8
0
100
AcDbVertex
100
AcDb2dVertex
 10
102.041435
 20
44.878273
 30
0.0
  0
VERTEX
  5
269
100
AcDbEntity
  8
0
100
AcDbVertex
100
AcDb2dVertex
 10
101.786316
 20
45.153164
 30
0.0
  0
VERTEX
  5
26A
100
AcDbEntity
  8
0
100
AcDbVertex
100
AcDb2dVertex
 10
101.624557
 20
45.491344
 30
0.0
  0
VERTEX
  5
26B
100
AcDbEntity
  8
0
100
AcDbVertex
100
AcDb2dVertex
 10
101.573891
 20
45.862686
 30
0.0
  0
VERTEX
  5
26C
100
AcDbEntity
  8
0
100
AcDbVertex
100
AcDb2dVertex
 10
101.640297
 20
46.23159
 30
0.0
  0
VERTEX
  5
26D
100
AcDbEntity
  8
0
100
AcDbVertex
100
AcDb2dVertex
 10
101.81601
 20
46.562759
 30
0.0
  0
VERTEX
  5
26E
100
AcDbEntity
  8
0
100
AcDbVertex
100
AcDb2dVertex
 10
101.862732
 20
46.621761
 30
0.0
  0
SEQEND
  5
26F
100
AcDbEntity
  8
0
  0
ARC
  5
270
100
AcDbEntity
  8
0
 62
     7
100
AcDbCircle
 10
102.871155
 20
45.758808
 30
0.0
 40
1.327849
210
0.0
220
0.0
230
1.0
100
AcDbArc
 50
89.676743
 51
139.444855
  0
POLYLINE
  5
271
100
AcDbEntity
  8
0
 62
     7
100
AcDb2dPolyline
 66
     1
 10
0.0
 20
0.0
 30
0.0
 71
     9
  0
VERTEX
  5
272
100
AcDbEntity
  8
0
100
AcDbVertex
100
AcDb2dVertex
 10
102.878654
 20
47.087139
 30
0.0
  0
VERTEX
  5
273
100
AcDbEntity
  8
0
100
AcDbVertex
100
AcDb2dVertex
 10
103.270378
 20
47.029503
 30
0.0
  0
VERTEX
  5
274
100
AcDbEntity
  8
0
100
AcDbVertex
100
AcDb2dVertex
 10
103.62825
 20
46.860367
 30
0.0
  0
VERTEX
  5
275
100
AcDbEntity
  8
0
100
AcDbVertex
100
AcDb2dVertex
 10
103.918976
 20
46.591858
 30
0.0
  0
VERTEX
  5
276
100
AcDbEntity
  8
0
100
AcDbVertex
100
AcDb2dVertex
 10
104.11174
 20
46.246449
 30
0.0
  0
VERTEX
  5
277
100
AcDbEntity
  8
0
100
AcDbVertex
100
AcDb2dVertex
 10
104.183517
 20
45.85759
 30
0.0
  0
VERTEX
  5
278
100
AcDbEntity
  8
0
100
AcDbVertex
100
AcDb2dVertex
 10
104.125
 20
45.46648
 30
0.0
  0
VERTEX
  5
279
100
AcDbEntity
  8
0
100
AcDbVertex
100
AcDb2dVertex
 10
103.943794
 20
45.114883
 30
0.0
  0
VERTEX
  5
27A
100
AcDbEntity
  8
0
100
AcDbVertex
100
AcDb2dVertex
 10
103.894577
 20
45.052521
 30
0.0
  0
SEQEND
  5
27B
100
AcDbEntity
  8
0
  0
POLYLINE
  5
27C
100
AcDbEntity
  8
0
 62
     7
100
AcDb2dPolyline
 66
     1
 10
0.0
 20
0.0
 30
0.0
 71
     5
  0
VERTEX
  5
27D
100
AcDbEntity
  8
0
100
AcDbVertex
100
AcDb2dVertex
 10
121.755745
 20
35.000099
 30
0.0
  0
VERTEX
  5
27E
100
AcDbEntity
  8
0
100
AcDbVertex
100
AcDb2dVertex
 10
121.539093
 20
34.677055
 30
0.0
  0
VERTEX
  5
27F
100
AcDbEntity
  8
0
100
AcDbVertex
100
AcDb2dVertex
 10
121.234665
 20
34.434731
 30
0.0
  0
VERTEX
  5
280
100
AcDbEntity
  8
0
100
AcDbVertex
100
AcDb2dVertex
 10
120.872589
 20
34.291954
 30
0.0
  0
VERTEX
  5
281
100
AcDbEntity
  8
0
100
AcDbVertex
100
AcDb2dVertex
 10
120.562843
 20
34.256134
 30
0.0
  0
SEQEND
  5
282
100
AcDbEntity
  8
0
  0
POLYLINE
  5
283
100
AcDbEntity
  8
0
 62
     7
100
AcDb2dPolyline
 66
     1
 10
0.0
 20
0.0
 30
0.0
 71
     8
  0
VERTEX
  5
284
100
AcDbEntity
  8
0
100
AcDbVertex
100
AcDb2dVertex
 10
120.562843
 20
34.256134
 30
0.0
  0
VERTEX
  5
285
100
AcDbEntity
  8
0
100
AcDbVertex
100
AcDb2dVertex
 10
120.124374
 20
34.328659
 30
0.0
  0
VERTEX
  5
286
100
AcDbEntity
  8
0
100
AcDbVertex
100
AcDb2dVertex
 10
119.733749
 20
34.540474
 30
0.0
  0
VERTEX
  5
287
100
AcDbEntity
  8
0
100
AcDbVertex
100
AcDb2dVertex
 10
119.478806
 20
34.809563
 30
0.0
  0
VERTEX
  5
288
100
AcDbEntity
  8
0
100
AcDbVertex
100
AcDb2dVertex
 10
119.314133
 20
35.141533
 30
0.0
  0
VERTEX
  5
289
100
AcDbEntity
  8
0
100
AcDbVertex
100
AcDb2dVertex
 10
119.257385
 20
35.507668
 30
0.0
  0
VERTEX
  5
28A
100
AcDbEntity
  8
0
100
AcDbVertex
100
AcDb2dVertex
 10
119.315063
 20
35.873634
 30
0.0
  0
VERTEX
  5
28B
100
AcDbEntity
  8
0
100
AcDbVertex
100
AcDb2dVertex
 10
119.36911
 20
36.012169
 30
0.0
  0
SEQEND
  5
28C
100
AcDbEntity
  8
0
  0
POLYLINE
  5
28D
100
AcDbEntity
  8
0
 62
     7
100
AcDb2dPolyline
 66
     1
 10
0.0
 20
0.0
 30
0.0
 71
     5
  0
VERTEX
  5
28E
100
AcDbEntity
  8
0
100
AcDbVertex
100
AcDb2dVertex
 10
119.36911
 20
36.012169
 30
0.0
  0
VERTEX
  5
28F
100
AcDbEntity
  8
0
100
AcDbVertex
100
AcDb2dVertex
 10
119.608818
 20
36.359482
 30
0.0
  0
VERTEX
  5
290
100
AcDbEntity
  8
0
100
AcDbVertex
100
AcDb2dVertex
 10
119.949036
 20
36.609451
 30
0.0
  0
VERTEX
  5
291
100
AcDbEntity
  8
0
100
AcDbVertex
100
AcDb2dVertex
 10
120.350815
 20
36.739586
 30
0.0
  0
VERTEX
  5
292
100
AcDbEntity
  8
0
100
AcDbVertex
100
AcDb2dVertex
 10
120.562012
 20
36.756134
 30
0.0
  0
SEQEND
  5
293
100
AcDbEntity
  8
0
  0
POLYLINE
  5
294
100
AcDbEntity
  8
0
 62
     7
100
AcDb2dPolyline
 66
     1
 10
0.0
 20
0.0
 30
0.0
 71
     7
  0
VERTEX
  5
295
100
AcDbEntity
  8
0
100
AcDbVertex
100
AcDb2dVertex
 10
120.562012
 20
36.756134
 30
0.0
  0
VERTEX
  5
296
100
AcDbEntity
  8
0
100
AcDbVertex
100
AcDb2dVertex
 10
120.976929
 20
36.691406
 30
0.0
  0
VERTEX
  5
297
100
AcDbEntity
  8
0
100
AcDbVertex
100
AcDb2dVertex
 10
121.351547
 20
36.501724
 30
0.0
  0
VERTEX
  5
298
100
AcDbEntity
  8
0
100
AcDbVertex
100
AcDb2dVertex
 10
121.646042
 20
36.202705
 30
0.0
  0
VERTEX
  5
299
100
AcDbEntity
  8
0
100
AcDbVertex
100
AcDb2dVertex
 10
121.824783
 20
35.823181
 30
0.0
  0
VERTEX
  5
29A
100
AcDbEntity
  8
0
100
AcDbVertex
100
AcDb2dVertex
 10
121.863228
 20
35.405525
 30
0.0
  0
VERTEX
  5
29B
100
AcDbEntity
  8
0
100
AcDbVertex
100
AcDb2dVertex
 10
121.755745
 20
35.000099
 30
0.0
  0
SEQEND
  5
29C
100
AcDbEntity
  8
0
  0
POLYLINE
  5
29D
100
AcDbEntity
  8
0
 62
     7
100
AcDb2dPolyline
 66
     1
 10
0.0
 20
0.0
 30
0.0
 71
     6
  0
VERTEX
  5
29E
100
AcDbEntity
  8
0
100
AcDbVertex
100
AcDb2dVertex
 10
141.724625
 20
29.718056
 30
0.0
  0
VERTEX
  5
29F
100
AcDbEntity
  8
0
100
AcDbVertex
100
AcDb2dVertex
 10
141.606995
 20
29.360733
 30
0.0
  0
VERTEX
  5
2A0
100
AcDbEntity
  8
0
100
AcDbVertex
100
AcDb2dVertex
 10
141.38681
 20
29.055595
 30
0.0
  0
VERTEX
  5
2A1
100
AcDbEntity
  8
0
100
AcDbVertex
100
AcDb2dVertex
 10
141.08696
 20
28.828056
 30
0.0
  0
VERTEX
  5
2A2
100
AcDbEntity
  8
0
100
AcDbVertex
100
AcDb2dVertex
 10
140.660828
 20
28.679832
 30
0.0
  0
VERTEX
  5
2A3
100
AcDbEntity
  8
0
100
AcDbVertex
100
AcDb2dVertex
 10
140.435226
 20
28.661018
 30
0.0
  0
SEQEND
  5
2A4
100
AcDbEntity
  8
0
  0
POLYLINE
  5
2A5
100
AcDbEntity
  8
0
 62
     7
100
AcDb2dPolyline
 66
     1
 10
0.0
 20
0.0
 30
0.0
 71
     7
  0
VERTEX
  5
2A6
100
AcDbEntity
  8
0
100
AcDbVertex
100
AcDb2dVertex
 10
140.435226
 20
28.661018
 30
0.0
  0
VERTEX
  5
2A7
100
AcDbEntity
  8
0
100
AcDbVertex
100
AcDb2dVertex
 10
139.988312
 20
28.736603
 30
0.0
  0
VERTEX
  5
2A8
100
AcDbEntity
  8
0
100
AcDbVertex
100
AcDb2dVertex
 10
139.652634
 20
28.910713
 30
0.0
  0
VERTEX
  5
2A9
100
AcDbEntity
  8
0
100
AcDbVertex
100
AcDb2dVertex
 10
139.381226
 20
29.17392
 30
0.0
  0
VERTEX
  5
2AA
100
AcDbEntity
  8
0
100
AcDbVertex
100
AcDb2dVertex
 10
139.200623
 20
29.505905
 30
0.0
  0
VERTEX
  5
2AB
100
AcDbEntity
  8
0
100
AcDbVertex
100
AcDb2dVertex
 10
139.130676
 20
29.87719
 30
0.0
  0
VERTEX
  5
2AC
100
AcDbEntity
  8
0
100
AcDbVertex
100
AcDb2dVertex
 10
139.145828
 20
30.103981
 30
0.0
  0
SEQEND
  5
2AD
100
AcDbEntity
  8
0
  0
POLYLINE
  5
2AE
100
AcDbEntity
  8
0
 62
     7
100
AcDb2dPolyline
 66
     1
 10
0.0
 20
0.0
 30
0.0
 71
     6
  0
VERTEX
  5
2AF
100
AcDbEntity
  8
0
100
AcDbVertex
100
AcDb2dVertex
 10
139.145828
 20
30.103981
 30
0.0
  0
VERTEX
  5
2B0
100
AcDbEntity
  8
0
100
AcDbVertex
100
AcDb2dVertex
 10
139.263458
 20
30.461304
 30
0.0
  0
VERTEX
  5
2B1
100
AcDbEntity
  8
0
100
AcDbVertex
100
AcDb2dVertex
 10
139.483643
 20
30.766441
 30
0.0
  0
VERTEX
  5
2B2
100
AcDbEntity
  8
0
100
AcDbVertex
100
AcDb2dVertex
 10
139.783493
 20
30.99398
 30
0.0
  0
VERTEX
  5
2B3
100
AcDbEntity
  8
0
100
AcDbVertex
100
AcDb2dVertex
 10
140.209641
 20
31.142204
 30
0.0
  0
VERTEX
  5
2B4
100
AcDbEntity
  8
0
100
AcDbVertex
100
AcDb2dVertex
 10
140.435226
 20
31.161018
 30
0.0
  0
SEQEND
  5
2B5
100
AcDbEntity
  8
0
  0
POLYLINE
  5
2B6
100
AcDbEntity
  8
0
 62
     7
100
AcDb2dPolyline
 66
     1
 10
0.0
 20
0.0
 30
0.0
 71
     7
  0
VERTEX
  5
2B7
100
AcDbEntity
  8
0
100
AcDbVertex
100
AcDb2dVertex
 10
140.435226
 20
31.161018
 30
0.0
  0
VERTEX
  5
2B8
100
AcDbEntity
  8
0
100
AcDbVertex
100
AcDb2dVertex
 10
140.882141
 20
31.085434
 30
0.0
  0
VERTEX
  5
2B9
100
AcDbEntity
  8
0
100
AcDbVertex
100
AcDb2dVertex
 10
141.217819
 20
30.911324
 30
0.0
  0
VERTEX
  5
2BA
100
AcDbEntity
  8
0
100
AcDbVertex
100
AcDb2dVertex
 10
141.489227
 20
30.648117
 30
0.0
  0
VERTEX
  5
2BB
100
AcDbEntity
  8
0
100
AcDbVertex
100
AcDb2dVertex
 10
141.66983
 20
30.316132
 30
0.0
  0
VERTEX
  5
2BC
100
AcDbEntity
  8
0
100
AcDbVertex
100
AcDb2dVertex
 10
141.739792
 20
29.944847
 30
0.0
  0
VERTEX
  5
2BD
100
AcDbEntity
  8
0
100
AcDbVertex
100
AcDb2dVertex
 10
141.724625
 20
29.718056
 30
0.0
  0
SEQEND
  5
2BE
100
AcDbEntity
  8
0
  0
LINE
  5
2BF
100
AcDbEntity
  8
0
 62
     7
 48
0.279648
100
AcDbLine
 10
199.288956
 20
143.386734
 30
0.0
 11
208.186737
 21
150.16568
 31
0.0
210
0.0
220
0.0
230
1.0
  0
LINE
  5
2C0
100
AcDbEntity
  8
0
 62
     7
 48
0.212997
100
AcDbLine
 10
209.315964
 20
148.55011
 30
0.0
 11
202.538879
 21
143.386856
 31
0.0
210
0.0
220
0.0
230
1.0
  0
ELLIPSE
  5
2C1
100
AcDbEntity
  8
0
 62
     7
100
AcDbEllipse
 10
209.331635
 20
149.800003
 30
0.0
 11
0.0
 21
-1.25
 31
0.0
210
0.0
220
0.0
230
1.0
 40
0.957826
 41
4.4155011177062988
 42
6.2700915336608887
  0
LINE
  5
2C2
100
AcDbEntity
  8
0
 62
     7
 48
0.007184
100
AcDbLine
 10
207.899384
 20
150.16568
 30
0.0
 11
208.186737
 21
150.16568
 31
0.0
210
0.0
220
0.0
230
1.0
  0
LINE
  5
2C3
100
AcDbEntity
  8
0
 62
     7
 48
0.279647
100
AcDbLine
 10
199.001617
 20
143.386734
 30
0.0
 11
207.899384
 21
150.16568
 31
0.0
210
0.0
220
0.0
230
1.0
  0
ARC
  5
2C4
100
AcDbEntity
  8
0
 62
     7
100
AcDbCircle
 10
205.812592
 20
142.042587
 30
0.0
 40
1.344128
210
0.0
220
0.0
230
1.0
100
AcDbArc
 50
89.880536
 51
124.77186
  0
POLYLINE
  5
2C5
100
AcDbEntity
  8
0
 62
     7
100
AcDb2dPolyline
 66
     1
 10
0.0
 20
0.0
 30
0.0
 71
     9
  0
VERTEX
  5
2C6
100
AcDbEntity
  8
0
100
AcDbVertex
100
AcDb2dVertex
 10
205.815384
 20
143.386841
 30
0.0
  0
VERTEX
  5
2C7
100
AcDbEntity
  8
0
100
AcDbVertex
100
AcDb2dVertex
 10
206.253342
 20
143.314346
 30
0.0
  0
VERTEX
  5
2C8
100
AcDbEntity
  8
0
100
AcDbVertex
100
AcDb2dVertex
 10
206.643524
 20
143.102921
 30
0.0
  0
VERTEX
  5
2C9
100
AcDbEntity
  8
0
100
AcDbVertex
100
AcDb2dVertex
 10
206.898361
 20
142.83432
 30
0.0
  0
VERTEX
  5
2CA
100
AcDbEntity
  8
0
100
AcDbVertex
100
AcDb2dVertex
 10
207.063202
 20
142.50293
 30
0.0
  0
VERTEX
  5
2CB
100
AcDbEntity
  8
0
100
AcDbVertex
100
AcDb2dVertex
 10
207.120422
 20
142.137329
 30
0.0
  0
VERTEX
  5
2CC
100
AcDbEntity
  8
0
100
AcDbVertex
100
AcDb2dVertex
 10
207.063507
 20
141.771729
 30
0.0
  0
VERTEX
  5
2CD
100
AcDbEntity
  8
0
100
AcDbVertex
100
AcDb2dVertex
 10
206.898956
 20
141.440186
 30
0.0
  0
VERTEX
  5
2CE
100
AcDbEntity
  8
0
100
AcDbVertex
100
AcDb2dVertex
 10
206.584671
 20
141.127106
 30
0.0
  0
SEQEND
  5
2CF
100
AcDbEntity
  8
0
  0
ARC
  5
2D0
100
AcDbEntity
  8
0
 62
     7
100
AcDbCircle
 10
205.818176
 20
142.231049
 30
0.0
 40
1.344099
210
0.0
220
0.0
230
1.0
100
AcDbArc
 50
269.880879
 51
304.772965
  0
POLYLINE
  5
2D1
100
AcDbEntity
  8
0
 62
     7
100
AcDb2dPolyline
 66
     1
 10
0.0
 20
0.0
 30
0.0
 71
     9
  0
VERTEX
  5
2D2
100
AcDbEntity
  8
0
100
AcDbVertex
100
AcDb2dVertex
 10
205.815384
 20
140.886841
 30
0.0
  0
VERTEX
  5
2D3
100
AcDbEntity
  8
0
100
AcDbVertex
100
AcDb2dVertex
 10
205.421646
 20
140.945099
 30
0.0
  0
VERTEX
  5
2D4
100
AcDbEntity
  8
0
100
AcDbVertex
100
AcDb2dVertex
 10
205.062241
 20
141.115997
 30
0.0
  0
VERTEX
  5
2D5
100
AcDbEntity
  8
0
100
AcDbVertex
100
AcDb2dVertex
 10
204.771133
 20
141.387131
 30
0.0
  0
VERTEX
  5
2D6
100
AcDbEntity
  8
0
100
AcDbVertex
100
AcDb2dVertex
 10
204.579422
 20
141.73555
 30
0.0
  0
VERTEX
  5
2D7
100
AcDbEntity
  8
0
100
AcDbVertex
100
AcDb2dVertex
 10
204.510391
 20
142.12706
 30
0.0
  0
VERTEX
  5
2D8
100
AcDbEntity
  8
0
100
AcDbVertex
100
AcDb2dVertex
 10
204.573029
 20
142.519623
 30
0.0
  0
VERTEX
  5
2D9
100
AcDbEntity
  8
0
100
AcDbVertex
100
AcDb2dVertex
 10
204.759171
 20
142.871033
 30
0.0
  0
VERTEX
  5
2DA
100
AcDbEntity
  8
0
100
AcDbVertex
100
AcDb2dVertex
 10
205.046097
 20
143.146576
 30
0.0
  0
SEQEND
  5
2DB
100
AcDbEntity
  8
0
  0
POLYLINE
  5
2DC
100
AcDbEntity
  8
0
 62
     7
100
AcDb2dPolyline
 66
     1
 10
0.0
 20
0.0
 30
0.0
 71
     5
  0
VERTEX
  5
2DD
100
AcDbEntity
  8
0
100
AcDbVertex
100
AcDb2dVertex
 10
185.819443
 20
159.435852
 30
0.0
  0
VERTEX
  5
2DE
100
AcDbEntity
  8
0
100
AcDbVertex
100
AcDb2dVertex
 10
186.074738
 20
159.726105
 30
0.0
  0
VERTEX
  5
2DF
100
AcDbEntity
  8
0
100
AcDbVertex
100
AcDb2dVertex
 10
186.404678
 20
159.927704
 30
0.0
  0
VERTEX
  5
2E0
100
AcDbEntity
  8
0
100
AcDbVertex
100
AcDb2dVertex
 10
186.778687
 20
160.026123
 30
0.0
  0
VERTEX
  5
2E1
100
AcDbEntity
  8
0
100
AcDbVertex
100
AcDb2dVertex
 10
186.933594
 20
160.034958
 30
0.0
  0
SEQEND
  5
2E2
100
AcDbEntity
  8
0
  0
POLYLINE
  5
2E3
100
AcDbEntity
  8
0
 62
     7
100
AcDb2dPolyline
 66
     1
 10
0.0
 20
0.0
 30
0.0
 71
     8
  0
VERTEX
  5
2E4
100
AcDbEntity
  8
0
100
AcDbVertex
100
AcDb2dVertex
 10
186.933594
 20
160.034958
 30
0.0
  0
VERTEX
  5
2E5
100
AcDbEntity
  8
0
100
AcDbVertex
100
AcDb2dVertex
 10
187.374573
 20
159.961441
 30
0.0
  0
VERTEX
  5
2E6
100
AcDbEntity
  8
0
100
AcDbVertex
100
AcDb2dVertex
 10
187.766785
 20
159.747055
 30
0.0
  0
VERTEX
  5
2E7
100
AcDbEntity
  8
0
100
AcDbVertex
100
AcDb2dVertex
 10
188.021774
 20
159.474991
 30
0.0
  0
VERTEX
  5
2E8
100
AcDbEntity
  8
0
100
AcDbVertex
100
AcDb2dVertex
 10
188.184937
 20
159.139832
 30
0.0
  0
VERTEX
  5
2E9
100
AcDbEntity
  8
0
100
AcDbVertex
100
AcDb2dVertex
 10
188.238556
 20
158.771027
 30
0.0
  0
VERTEX
  5
2EA
100
AcDbEntity
  8
0
100
AcDbVertex
100
AcDb2dVertex
 10
188.176392
 20
158.403564
 30
0.0
  0
VERTEX
  5
2EB
100
AcDbEntity
  8
0
100
AcDbVertex
100
AcDb2dVertex
 10
188.047745
 20
158.134064
 30
0.0
  0
SEQEND
  5
2EC
100
AcDbEntity
  8
0
  0
POLYLINE
  5
2ED
100
AcDbEntity
  8
0
 62
     7
100
AcDb2dPolyline
 66
     1
 10
0.0
 20
0.0
 30
0.0
 71
     5
  0
VERTEX
  5
2EE
100
AcDbEntity
  8
0
100
AcDbVertex
100
AcDb2dVertex
 10
188.047745
 20
158.134064
 30
0.0
  0
VERTEX
  5
2EF
100
AcDbEntity
  8
0
100
AcDbVertex
100
AcDb2dVertex
 10
187.792465
 20
157.843826
 30
0.0
  0
VERTEX
  5
2F0
100
AcDbEntity
  8
0
100
AcDbVertex
100
AcDb2dVertex
 10
187.462509
 20
157.642227
 30
0.0
  0
VERTEX
  5
2F1
100
AcDbEntity
  8
0
100
AcDbVertex
100
AcDb2dVertex
 10
187.088501
 20
157.543808
 30
0.0
  0
VERTEX
  5
2F2
100
AcDbEntity
  8
0
100
AcDbVertex
100
AcDb2dVertex
 10
186.933594
 20
157.534973
 30
0.0
  0
SEQEND
  5
2F3
100
AcDbEntity
  8
0
  0
POLYLINE
  5
2F4
100
AcDbEntity
  8
0
 62
     7
100
AcDb2dPolyline
 66
     1
 10
0.0
 20
0.0
 30
0.0
 71
     8
  0
VERTEX
  5
2F5
100
AcDbEntity
  8
0
100
AcDbVertex
100
AcDb2dVertex
 10
186.933594
 20
157.534973
 30
0.0
  0
VERTEX
  5
2F6
100
AcDbEntity
  8
0
100
AcDbVertex
100
AcDb2dVertex
 10
186.49263
 20
157.60849
 30
0.0
  0
VERTEX
  5
2F7
100
AcDbEntity
  8
0
100
AcDbVertex
100
AcDb2dVertex
 10
186.100403
 20
157.822876
 30
0.0
  0
VERTEX
  5
2F8
100
AcDbEntity
  8
0
100
AcDbVertex
100
AcDb2dVertex
 10
185.845413
 20
158.09494
 30
0.0
  0
VERTEX
  5
2F9
100
AcDbEntity
  8
0
100
AcDbVertex
100
AcDb2dVertex
 10
185.682251
 20
158.430084
 30
0.0
  0
VERTEX
  5
2FA
100
AcDbEntity
  8
0
100
AcDbVertex
100
AcDb2dVertex
 10
185.628632
 20
158.798904
 30
0.0
  0
VERTEX
  5
2FB
100
AcDbEntity
  8
0
100
AcDbVertex
100
AcDb2dVertex
 10
185.690796
 20
159.166367
 30
0.0
  0
VERTEX
  5
2FC
100
AcDbEntity
  8
0
100
AcDbVertex
100
AcDb2dVertex
 10
185.819443
 20
159.435852
 30
0.0
  0
SEQEND
  5
2FD
100
AcDbEntity
  8
0
  0
POLYLINE
  5
2FE
100
AcDbEntity
  8
0
 62
     7
100
AcDb2dPolyline
 66
     1
 10
0.0
 20
0.0
 30
0.0
 71
     6
  0
VERTEX
  5
2FF
100
AcDbEntity
  8
0
100
AcDbVertex
100
AcDb2dVertex
 10
161.548233
 20
167.437775
 30
0.0
  0
VERTEX
  5
300
100
AcDbEntity
  8
0
100
AcDbVertex
100
AcDb2dVertex
 10
161.665848
 20
167.795105
 30
0.0
  0
VERTEX
  5
301
100
AcDbEntity
  8
0
100
AcDbVertex
100
AcDb2dVertex
 10
161.886032
 20
168.100235
 30
0.0
  0
VERTEX
  5
302
100
AcDbEntity
  8
0
100
AcDbVertex
100
AcDb2dVertex
 10
162.185883
 20
168.327774
 30
0.0
  0
VERTEX
  5
303
100
AcDbEntity
  8
0
100
AcDbVertex
100
AcDb2dVertex
 10
162.61203
 20
168.475998
 30
0.0
  0
VERTEX
  5
304
100
AcDbEntity
  8
0
100
AcDbVertex
100
AcDb2dVertex
 10
162.837631
 20
168.494812
 30
0.0
  0
SEQEND
  5
305
100
AcDbEntity
  8
0
  0
POLYLINE
  5
306
100
AcDbEntity
  8
0
 62
     7
100
AcDb2dPolyline
 66
     1
 10
0.0
 20
0.0
 30
0.0
 71
     7
  0
VERTEX
  5
307
100
AcDbEntity
  8
0
100
AcDbVertex
100
AcDb2dVertex
 10
162.837631
 20
168.494812
 30
0.0
  0
VERTEX
  5
308
100
AcDbEntity
  8
0
100
AcDbVertex
100
AcDb2dVertex
 10
163.284546
 20
168.41922
 30
0.0
  0
VERTEX
  5
309
100
AcDbEntity
  8
0
100
AcDbVertex
100
AcDb2dVertex
 10
163.620209
 20
168.245117
 30
0.0
  0
VERTEX
  5
30A
100
AcDbEntity
  8
0
100
AcDbVertex
100
AcDb2dVertex
 10
163.891617
 20
167.981903
 30
0.0
  0
VERTEX
  5
30B
100
AcDbEntity
  8
0
100
AcDbVertex
100
AcDb2dVertex
 10
164.07222
 20
167.649933
 30
0.0
  0
VERTEX
  5
30C
100
AcDbEntity
  8
0
100
AcDbVertex
100
AcDb2dVertex
 10
164.142181
 20
167.278641
 30
0.0
  0
VERTEX
  5
30D
100
AcDbEntity
  8
0
100
AcDbVertex
100
AcDb2dVertex
 10
164.127014
 20
167.051849
 30
0.0
  0
SEQEND
  5
30E
100
AcDbEntity
  8
0
  0
POLYLINE
  5
30F
100
AcDbEntity
  8
0
 62
     7
100
AcDb2dPolyline
 66
     1
 10
0.0
 20
0.0
 30
0.0
 71
     6
  0
VERTEX
  5
310
100
AcDbEntity
  8
0
100
AcDbVertex
100
AcDb2dVertex
 10
164.127014
 20
167.051849
 30
0.0
  0
VERTEX
  5
311
100
AcDbEntity
  8
0
100
AcDbVertex
100
AcDb2dVertex
 10
164.009399
 20
166.694534
 30
0.0
  0
VERTEX
  5
312
100
AcDbEntity
  8
0
100
AcDbVertex
100
AcDb2dVertex
 10
163.789215
 20
166.389389
 30
0.0
  0
VERTEX
  5
313
100
AcDbEntity
  8
0
100
AcDbVertex
100
AcDb2dVertex
 10
163.489349
 20
166.16185
 30
0.0
  0
VERTEX
  5
314
100
AcDbEntity
  8
0
100
AcDbVertex
100
AcDb2dVertex
 10
163.063217
 20
166.013626
 30
0.0
  0
VERTEX
  5
315
100
AcDbEntity
  8
0
100
AcDbVertex
100
AcDb2dVertex
 10
162.837616
 20
165.994812
 30
0.0
  0
SEQEND
  5
316
100
AcDbEntity
  8
0
  0
POLYLINE
  5
317
100
AcDbEntity
  8
0
 62
     7
100
AcDb2dPolyline
 66
     1
 10
0.0
 20
0.0
 30
0.0
 71
     7
  0
VERTEX
  5
318
100
AcDbEntity
  8
0
100
AcDbVertex
100
AcDb2dVertex
 10
162.837616
 20
165.994812
 30
0.0
  0
VERTEX
  5
319
100
AcDbEntity
  8
0
100
AcDbVertex
100
AcDb2dVertex
 10
162.390701
 20
166.070404
 30
0.0
  0
VERTEX
  5
31A
100
AcDbEntity
  8
0
100
AcDbVertex
100
AcDb2dVertex
 10
162.055023
 20
166.244507
 30
0.0
  0
VERTEX
  5
31B
100
AcDbEntity
  8
0
100
AcDbVertex
100
AcDb2dVertex
 10
161.78363
 20
166.507721
 30
0.0
  0
VERTEX
  5
31C
100
AcDbEntity
  8
0
100
AcDbVertex
100
AcDb2dVertex
 10
161.603027
 20
166.839706
 30
0.0
  0
VERTEX
  5
31D
100
AcDbEntity
  8
0
100
AcDbVertex
100
AcDb2dVertex
 10
161.533066
 20
167.210983
 30
0.0
  0
VERTEX
  5
31E
100
AcDbEntity
  8
0
100
AcDbVertex
100
AcDb2dVertex
 10
161.548233
 20
167.437775
 30
0.0
  0
SEQEND
  5
31F
100
AcDbEntity
  8
0
  0
ARC
  5
320
100
AcDbEntity
  8
0
 62
     7
100
AcDbCircle
 10
216.608215
 20
119.725327
 30
0.0
 40
1.359643
210
0.0
220
0.0
230
1.0
100
AcDbArc
 50
89.992503
 51
103.055219
  0
POLYLINE
  5
321
100
AcDbEntity
  8
0
 62
     7
100
AcDb2dPolyline
 66
     1
 10
0.0
 20
0.0
 30
0.0
 71
    10
  0
VERTEX
  5
322
100
AcDbEntity
  8
0
100
AcDbVertex
100
AcDb2dVertex
 10
216.608398
 20
121.084969
 30
0.0
  0
VERTEX
  5
323
100
AcDbEntity
  8
0
100
AcDbVertex
100
AcDb2dVertex
 10
217.045044
 20
121.012924
 30
0.0
  0
VERTEX
  5
324
100
AcDbEntity
  8
0
100
AcDbVertex
100
AcDb2dVertex
 10
217.434357
 20
120.802773
 30
0.0
  0
VERTEX
  5
325
100
AcDbEntity
  8
0
100
AcDbVertex
100
AcDb2dVertex
 10
217.730042
 20
120.473953
 30
0.0
  0
VERTEX
  5
326
100
AcDbEntity
  8
0
100
AcDbVertex
100
AcDb2dVertex
 10
217.875336
 20
120.134827
 30
0.0
  0
VERTEX
  5
327
100
AcDbEntity
  8
0
100
AcDbVertex
100
AcDb2dVertex
 10
217.91156
 20
119.767746
 30
0.0
  0
VERTEX
  5
328
100
AcDbEntity
  8
0
100
AcDbVertex
100
AcDb2dVertex
 10
217.834549
 20
119.40696
 30
0.0
  0
VERTEX
  5
329
100
AcDbEntity
  8
0
100
AcDbVertex
100
AcDb2dVertex
 10
217.653015
 20
119.085716
 30
0.0
  0
VERTEX
  5
32A
100
AcDbEntity
  8
0
100
AcDbVertex
100
AcDb2dVertex
 10
217.32431
 20
118.789841
 30
0.0
  0
VERTEX
  5
32B
100
AcDbEntity
  8
0
100
AcDbVertex
100
AcDb2dVertex
 10
216.91571
 20
118.620125
 30
0.0
  0
SEQEND
  5
32C
100
AcDbEntity
  8
0
  0
ARC
  5
32D
100
AcDbEntity
  8
0
 62
     7
100
AcDbCircle
 10
216.608582
 20
119.944618
 30
0.0
 40
1.359643
210
0.0
220
0.0
230
1.0
100
AcDbArc
 50
269.992505
 51
283.055221
  0
POLYLINE
  5
32E
100
AcDbEntity
  8
0
 62
     7
100
AcDb2dPolyline
 66
     1
 10
0.0
 20
0.0
 30
0.0
 71
    10
  0
VERTEX
  5
32F
100
AcDbEntity
  8
0
100
AcDbVertex
100
AcDb2dVertex
 10
216.608398
 20
118.584976
 30
0.0
  0
VERTEX
  5
330
100
AcDbEntity
  8
0
100
AcDbVertex
100
AcDb2dVertex
 10
216.171753
 20
118.657013
 30
0.0
  0
VERTEX
  5
331
100
AcDbEntity
  8
0
100
AcDbVertex
100
AcDb2dVertex
 10
215.782455
 20
118.867172
 30
0.0
  0
VERTEX
  5
332
100
AcDbEntity
  8
0
100
AcDbVertex
100
AcDb2dVertex
 10
215.486755
 20
119.195992
 30
0.0
  0
VERTEX
  5
333
100
AcDbEntity
  8
0
100
AcDbVertex
100
AcDb2dVertex
 10
215.341476
 20
119.535118
 30
0.0
  0
VERTEX
  5
334
100
AcDbEntity
  8
0
100
AcDbVertex
100
AcDb2dVertex
 10
215.305252
 20
119.902199
 30
0.0
  0
VERTEX
  5
335
100
AcDbEntity
  8
0
100
AcDbVertex
100
AcDb2dVertex
 10
215.382263
 20
120.262985
 30
0.0
  0
VERTEX
  5
336
100
AcDbEntity
  8
0
100
AcDbVertex
100
AcDb2dVertex
 10
215.563782
 20
120.584229
 30
0.0
  0
VERTEX
  5
337
100
AcDbEntity
  8
0
100
AcDbVertex
100
AcDb2dVertex
 10
215.892487
 20
120.880104
 30
0.0
  0
VERTEX
  5
338
100
AcDbEntity
  8
0
100
AcDbVertex
100
AcDb2dVertex
 10
216.301086
 20
121.04982
 30
0.0
  0
SEQEND
  5
339
100
AcDbEntity
  8
0
  0
ARC
  5
33A
100
AcDbEntity
  8
0
 62
     7
100
AcDbCircle
 10
231.578156
 20
112.990204
 30
0.0
 40
1.361805
210
0.0
220
0.0
230
1.0
100
AcDbArc
 50
89.998978
 51
95.862559
  0
POLYLINE
  5
33B
100
AcDbEntity
  8
0
 62
     7
100
AcDb2dPolyline
 66
     1
 10
0.0
 20
0.0
 30
0.0
 71
    11
  0
VERTEX
  5
33C
100
AcDbEntity
  8
0
100
AcDbVertex
100
AcDb2dVertex
 10
231.578186
 20
114.352013
 30
0.0
  0
VERTEX
  5
33D
100
AcDbEntity
  8
0
100
AcDbVertex
100
AcDb2dVertex
 10
232.009308
 20
114.28183
 30
0.0
  0
VERTEX
  5
33E
100
AcDbEntity
  8
0
100
AcDbVertex
100
AcDb2dVertex
 10
232.394897
 20
114.076981
 30
0.0
  0
VERTEX
  5
33F
100
AcDbEntity
  8
0
100
AcDbVertex
100
AcDb2dVertex
 10
232.69046
 20
113.755829
 30
0.0
  0
VERTEX
  5
340
100
AcDbEntity
  8
0
100
AcDbVertex
100
AcDb2dVertex
 10
232.85675
 20
113.352516
 30
0.0
  0
VERTEX
  5
341
100
AcDbEntity
  8
0
100
AcDbVertex
100
AcDb2dVertex
 10
232.877884
 20
112.989105
 30
0.0
  0
VERTEX
  5
342
100
AcDbEntity
  8
0
100
AcDbVertex
100
AcDb2dVertex
 10
232.789124
 20
112.635986
 30
0.0
  0
VERTEX
  5
343
100
AcDbEntity
  8
0
100
AcDbVertex
100
AcDb2dVertex
 10
232.55191
 20
112.269753
 30
0.0
  0
VERTEX
  5
344
100
AcDbEntity
  8
0
100
AcDbVertex
100
AcDb2dVertex
 10
232.204529
 20
112.005379
 30
0.0
  0
VERTEX
  5
345
100
AcDbEntity
  8
0
100
AcDbVertex
100
AcDb2dVertex
 10
231.789795
 20
111.868553
 30
0.0
  0
VERTEX
  5
346
100
AcDbEntity
  8
0
100
AcDbVertex
100
AcDb2dVertex
 10
231.717316
 20
111.859131
 30
0.0
  0
SEQEND
  5
347
100
AcDbEntity
  8
0
  0
ARC
  5
348
100
AcDbEntity
  8
0
 62
     7
100
AcDbCircle
 10
231.578217
 20
113.213814
 30
0.0
 40
1.361805
210
0.0
220
0.0
230
1.0
100
AcDbArc
 50
269.99898
 51
275.862561
  0
POLYLINE
  5
349
100
AcDbEntity
  8
0
 62
     7
100
AcDb2dPolyline
 66
     1
 10
0.0
 20
0.0
 30
0.0
 71
    11
  0
VERTEX
  5
34A
100
AcDbEntity
  8
0
100
AcDbVertex
100
AcDb2dVertex
 10
231.578186
 20
111.852013
 30
0.0
  0
VERTEX
  5
34B
100
AcDbEntity
  8
0
100
AcDbVertex
100
AcDb2dVertex
 10
231.147064
 20
111.922188
 30
0.0
  0
VERTEX
  5
34C
100
AcDbEntity
  8
0
100
AcDbVertex
100
AcDb2dVertex
 10
230.761475
 20
112.127037
 30
0.0
  0
VERTEX
  5
34D
100
AcDbEntity
  8
0
100
AcDbVertex
100
AcDb2dVertex
 10
230.465912
 20
112.448196
 30
0.0
  0
VERTEX
  5
34E
100
AcDbEntity
  8
0
100
AcDbVertex
100
AcDb2dVertex
 10
230.299622
 20
112.851501
 30
0.0
  0
VERTEX
  5
34F
100
AcDbEntity
  8
0
100
AcDbVertex
100
AcDb2dVertex
 10
230.278488
 20
113.21492
 30
0.0
  0
VERTEX
  5
350
100
AcDbEntity
  8
0
100
AcDbVertex
100
AcDb2dVertex
 10
230.367249
 20
113.568039
 30
0.0
  0
VERTEX
  5
351
100
AcDbEntity
  8
0
100
AcDbVertex
100
AcDb2dVertex
 10
230.604462
 20
113.934265
 30
0.0
  0
VERTEX
  5
352
100
AcDbEntity
  8
0
100
AcDbVertex
100
AcDb2dVertex
 10
230.951843
 20
114.198639
 30
0.0
  0
VERTEX
  5
353
100
AcDbEntity
  8
0
100
AcDbVertex
100
AcDb2dVertex
 10
231.366577
 20
114.335464
 30
0.0
  0
VERTEX
  5
354
100
AcDbEntity
  8
0
100
AcDbVertex
100
AcDb2dVertex
 10
231.439056
 20
114.344887
 30
0.0
  0
SEQEND
  5
355
100
AcDbEntity
  8
0
  0
ARC
  5
356
100
AcDbEntity
  8
0
 62
     7
100
AcDbCircle
 10
226.700073
 20
132.278183
 30
0.0
 40
1.355894
210
0.0
220
0.0
230
1.0
100
AcDbArc
 50
89.993787
 51
110.2657
  0
POLYLINE
  5
357
100
AcDbEntity
  8
0
 62
     7
100
AcDb2dPolyline
 66
     1
 10
0.0
 20
0.0
 30
0.0
 71
    10
  0
VERTEX
  5
358
100
AcDbEntity
  8
0
100
AcDbVertex
100
AcDb2dVertex
 10
226.700211
 20
133.634094
 30
0.0
  0
VERTEX
  5
359
100
AcDbEntity
  8
0
100
AcDbVertex
100
AcDb2dVertex
 10
227.109589
 20
133.571136
 30
0.0
  0
VERTEX
  5
35A
100
AcDbEntity
  8
0
100
AcDbVertex
100
AcDb2dVertex
 10
227.480286
 20
133.386505
 30
0.0
  0
VERTEX
  5
35B
100
AcDbEntity
  8
0
100
AcDbVertex
100
AcDb2dVertex
 10
227.774139
 20
133.094925
 30
0.0
  0
VERTEX
  5
35C
100
AcDbEntity
  8
0
100
AcDbVertex
100
AcDb2dVertex
 10
227.956635
 20
132.723572
 30
0.0
  0
VERTEX
  5
35D
100
AcDbEntity
  8
0
100
AcDbVertex
100
AcDb2dVertex
 10
228.00354
 20
132.312561
 30
0.0
  0
VERTEX
  5
35E
100
AcDbEntity
  8
0
100
AcDbVertex
100
AcDb2dVertex
 10
227.908188
 20
131.910034
 30
0.0
  0
VERTEX
  5
35F
100
AcDbEntity
  8
0
100
AcDbVertex
100
AcDb2dVertex
 10
227.683929
 20
131.562225
 30
0.0
  0
VERTEX
  5
360
100
AcDbEntity
  8
0
100
AcDbVertex
100
AcDb2dVertex
 10
227.359467
 20
131.305069
 30
0.0
  0
VERTEX
  5
361
100
AcDbEntity
  8
0
100
AcDbVertex
100
AcDb2dVertex
 10
227.170868
 20
131.218063
 30
0.0
  0
SEQEND
  5
362
100
AcDbEntity
  8
0
  0
ARC
  5
363
100
AcDbEntity
  8
0
 62
     7
100
AcDbCircle
 10
226.701233
 20
132.490005
 30
0.0
 40
1.355894
210
0.0
220
0.0
230
1.0
100
AcDbArc
 50
269.993782
 51
290.265695
  0
POLYLINE
  5
364
100
AcDbEntity
  8
0
 62
     7
100
AcDb2dPolyline
 66
     1
 10
0.0
 20
0.0
 30
0.0
 71
    10
  0
VERTEX
  5
365
100
AcDbEntity
  8
0
100
AcDbVertex
100
AcDb2dVertex
 10
226.70108
 20
131.134094
 30
0.0
  0
VERTEX
  5
366
100
AcDbEntity
  8
0
100
AcDbVertex
100
AcDb2dVertex
 10
226.291718
 20
131.197052
 30
0.0
  0
VERTEX
  5
367
100
AcDbEntity
  8
0
100
AcDbVertex
100
AcDb2dVertex
 10
225.92099
 20
131.381683
 30
0.0
  0
VERTEX
  5
368
100
AcDbEntity
  8
0
100
AcDbVertex
100
AcDb2dVertex
 10
225.627167
 20
131.673279
 30
0.0
  0
VERTEX
  5
369
100
AcDbEntity
  8
0
100
AcDbVertex
100
AcDb2dVertex
 10
225.444672
 20
132.044617
 30
0.0
  0
VERTEX
  5
36A
100
AcDbEntity
  8
0
100
AcDbVertex
100
AcDb2dVertex
 10
225.397751
 20
132.455627
 30
0.0
  0
VERTEX
  5
36B
100
AcDbEntity
  8
0
100
AcDbVertex
100
AcDb2dVertex
 10
225.493103
 20
132.858154
 30
0.0
  0
VERTEX
  5
36C
100
AcDbEntity
  8
0
100
AcDbVertex
100
AcDb2dVertex
 10
225.717346
 20
133.205963
 30
0.0
  0
VERTEX
  5
36D
100
AcDbEntity
  8
0
100
AcDbVertex
100
AcDb2dVertex
 10
226.04184
 20
133.46312
 30
0.0
  0
VERTEX
  5
36E
100
AcDbEntity
  8
0
100
AcDbVertex
100
AcDb2dVertex
 10
226.230423
 20
133.55014
 30
0.0
  0
SEQEND
  5
36F
100
AcDbEntity
  8
0
  0
ARC
  5
370
100
AcDbEntity
  8
0
 62
     7
100
AcDbCircle
 10
202.481873
 20
164.084457
 30
0.0
 40
1.327899
210
0.0
220
0.0
230
1.0
100
AcDbArc
 50
89.675917
 51
139.44215
  0
POLYLINE
  5
371
100
AcDbEntity
  8
0
 62
     7
100
AcDb2dPolyline
 66
     1
 10
0.0
 20
0.0
 30
0.0
 71
     9
  0
VERTEX
  5
372
100
AcDbEntity
  8
0
100
AcDbVertex
100
AcDb2dVertex
 10
202.48938
 20
165.412857
 30
0.0
  0
VERTEX
  5
373
100
AcDbEntity
  8
0
100
AcDbVertex
100
AcDb2dVertex
 10
202.932831
 20
165.338486
 30
0.0
  0
VERTEX
  5
374
100
AcDbEntity
  8
0
100
AcDbVertex
100
AcDb2dVertex
 10
203.326599
 20
165.121735
 30
0.0
  0
VERTEX
  5
375
100
AcDbEntity
  8
0
100
AcDbVertex
100
AcDb2dVertex
 10
203.581726
 20
164.846832
 30
0.0
  0
VERTEX
  5
376
100
AcDbEntity
  8
0
100
AcDbVertex
100
AcDb2dVertex
 10
203.743484
 20
164.508652
 30
0.0
  0
VERTEX
  5
377
100
AcDbEntity
  8
0
100
AcDbVertex
100
AcDb2dVertex
 10
203.794144
 20
164.137314
 30
0.0
  0
VERTEX
  5
378
100
AcDbEntity
  8
0
100
AcDbVertex
100
AcDb2dVertex
 10
203.727737
 20
163.768402
 30
0.0
  0
VERTEX
  5
379
100
AcDbEntity
  8
0
100
AcDbVertex
100
AcDb2dVertex
 10
203.552032
 20
163.437241
 30
0.0
  0
VERTEX
  5
37A
100
AcDbEntity
  8
0
100
AcDbVertex
100
AcDb2dVertex
 10
203.50531
 20
163.378235
 30
0.0
  0
SEQEND
  5
37B
100
AcDbEntity
  8
0
  0
ARC
  5
37C
100
AcDbEntity
  8
0
 62
     7
100
AcDbCircle
 10
202.496902
 20
164.241257
 30
0.0
 40
1.327899
210
0.0
220
0.0
230
1.0
100
AcDbArc
 50
269.675912
 51
319.442152
  0
POLYLINE
  5
37D
100
AcDbEntity
  8
0
 62
     7
100
AcDb2dPolyline
 66
     1
 10
0.0
 20
0.0
 30
0.0
 71
     9
  0
VERTEX
  5
37E
100
AcDbEntity
  8
0
100
AcDbVertex
100
AcDb2dVertex
 10
202.48938
 20
162.912857
 30
0.0
  0
VERTEX
  5
37F
100
AcDbEntity
  8
0
100
AcDbVertex
100
AcDb2dVertex
 10
202.045929
 20
162.987228
 30
0.0
  0
VERTEX
  5
380
100
AcDbEntity
  8
0
100
AcDbVertex
100
AcDb2dVertex
 10
201.652161
 20
163.203995
 30
0.0
  0
VERTEX
  5
381
100
AcDbEntity
  8
0
100
AcDbVertex
100
AcDb2dVertex
 10
201.397049
 20
163.478882
 30
0.0
  0
VERTEX
  5
382
100
AcDbEntity
  8
0
100
AcDbVertex
100
AcDb2dVertex
 10
201.235275
 20
163.817062
 30
0.0
  0
VERTEX
  5
383
100
AcDbEntity
  8
0
100
AcDbVertex
100
AcDb2dVertex
 10
201.184616
 20
164.1884
 30
0.0
  0
VERTEX
  5
384
100
AcDbEntity
  8
0
100
AcDbVertex
100
AcDb2dVertex
 10
201.251022
 20
164.557312
 30
0.0
  0
VERTEX
  5
385
100
AcDbEntity
  8
0
100
AcDbVertex
100
AcDb2dVertex
 10
201.426727
 20
164.888474
 30
0.0
  0
VERTEX
  5
386
100
AcDbEntity
  8
0
100
AcDbVertex
100
AcDb2dVertex
 10
201.473465
 20
164.947479
 30
0.0
  0
SEQEND
  5
387
100
AcDbEntity
  8
0
  0
POLYLINE
  5
388
100
AcDbEntity
  8
0
 62
     7
100
AcDb2dPolyline
 66
     1
 10
0.0
 20
0.0
 30
0.0
 71
     5
  0
VERTEX
  5
389
100
AcDbEntity
  8
0
100
AcDbVertex
100
AcDb2dVertex
 10
183.612289
 20
174.999908
 30
0.0
  0
VERTEX
  5
38A
100
AcDbEntity
  8
0
100
AcDbVertex
100
AcDb2dVertex
 10
183.852005
 20
175.347214
 30
0.0
  0
VERTEX
  5
38B
100
AcDbEntity
  8
0
100
AcDbVertex
100
AcDb2dVertex
 10
184.19223
 20
175.597198
 30
0.0
  0
VERTEX
  5
38C
100
AcDbEntity
  8
0
100
AcDbVertex
100
AcDb2dVertex
 10
184.594009
 20
175.727325
 30
0.0
  0
VERTEX
  5
38D
100
AcDbEntity
  8
0
100
AcDbVertex
100
AcDb2dVertex
 10
184.805191
 20
175.743866
 30
0.0
  0
SEQEND
  5
38E
100
AcDbEntity
  8
0
  0
POLYLINE
  5
38F
100
AcDbEntity
  8
0
 62
     7
100
AcDb2dPolyline
 66
     1
 10
0.0
 20
0.0
 30
0.0
 71
     7
  0
VERTEX
  5
390
100
AcDbEntity
  8
0
100
AcDbVertex
100
AcDb2dVertex
 10
184.805191
 20
175.743866
 30
0.0
  0
VERTEX
  5
391
100
AcDbEntity
  8
0
100
AcDbVertex
100
AcDb2dVertex
 10
185.220123
 20
175.679138
 30
0.0
  0
VERTEX
  5
392
100
AcDbEntity
  8
0
100
AcDbVertex
100
AcDb2dVertex
 10
185.594742
 20
175.489456
 30
0.0
  0
VERTEX
  5
393
100
AcDbEntity
  8
0
100
AcDbVertex
100
AcDb2dVertex
 10
185.889236
 20
175.19043
 30
0.0
  0
VERTEX
  5
394
100
AcDbEntity
  8
0
100
AcDbVertex
100
AcDb2dVertex
 10
186.067978
 20
174.810913
 30
0.0
  0
VERTEX
  5
395
100
AcDbEntity
  8
0
100
AcDbVertex
100
AcDb2dVertex
 10
186.106415
 20
174.39325
 30
0.0
  0
VERTEX
  5
396
100
AcDbEntity
  8
0
100
AcDbVertex
100
AcDb2dVertex
 10
185.998932
 20
173.987823
 30
0.0
  0
SEQEND
  5
397
100
AcDbEntity
  8
0
  0
POLYLINE
  5
398
100
AcDbEntity
  8
0
 62
     7
100
AcDb2dPolyline
 66
     1
 10
0.0
 20
0.0
 30
0.0
 71
     5
  0
VERTEX
  5
399
100
AcDbEntity
  8
0
100
AcDbVertex
100
AcDb2dVertex
 10
185.998932
 20
173.987823
 30
0.0
  0
VERTEX
  5
39A
100
AcDbEntity
  8
0
100
AcDbVertex
100
AcDb2dVertex
 10
185.759216
 20
173.640518
 30
0.0
  0
VERTEX
  5
39B
100
AcDbEntity
  8
0
100
AcDbVertex
100
AcDb2dVertex
 10
185.419006
 20
173.390549
 30
0.0
  0
VERTEX
  5
39C
100
AcDbEntity
  8
0
100
AcDbVertex
100
AcDb2dVertex
 10
185.017212
 20
173.260406
 30
0.0
  0
VERTEX
  5
39D
100
AcDbEntity
  8
0
100
AcDbVertex
100
AcDb2dVertex
 10
184.80603
 20
173.243866
 30
0.0
  0
SEQEND
  5
39E
100
AcDbEntity
  8
0
  0
POLYLINE
  5
39F
100
AcDbEntity
  8
0
 62
     7
100
AcDb2dPolyline
 66
     1
 10
0.0
 20
0.0
 30
0.0
 71
     7
  0
VERTEX
  5
3A0
100
AcDbEntity
  8
0
100
AcDbVertex
100
AcDb2dVertex
 10
184.80603
 20
173.243866
 30
0.0
  0
VERTEX
  5
3A1
100
AcDbEntity
  8
0
100
AcDbVertex
100
AcDb2dVertex
 10
184.391113
 20
173.308594
 30
0.0
  0
VERTEX
  5
3A2
100
AcDbEntity
  8
0
100
AcDbVertex
100
AcDb2dVertex
 10
184.016495
 20
173.498276
 30
0.0
  0
VERTEX
  5
3A3
100
AcDbEntity
  8
0
100
AcDbVertex
100
AcDb2dVertex
 10
183.721985
 20
173.797302
 30
0.0
  0
VERTEX
  5
3A4
100
AcDbEntity
  8
0
100
AcDbVertex
100
AcDb2dVertex
 10
183.543243
 20
174.176819
 30
0.0
  0
VERTEX
  5
3A5
100
AcDbEntity
  8
0
100
AcDbVertex
100
AcDb2dVertex
 10
183.504807
 20
174.594482
 30
0.0
  0
VERTEX
  5
3A6
100
AcDbEntity
  8
0
100
AcDbVertex
100
AcDb2dVertex
 10
183.612289
 20
174.999908
 30
0.0
  0
SEQEND
  5
3A7
100
AcDbEntity
  8
0
  0
POLYLINE
  5
3A8
100
AcDbEntity
  8
0
 62
     7
100
AcDb2dPolyline
 66
     1
 10
0.0
 20
0.0
 30
0.0
 71
     6
  0
VERTEX
  5
3A9
100
AcDbEntity
  8
0
100
AcDbVertex
100
AcDb2dVertex
 10
163.643417
 20
180.281952
 30
0.0
  0
VERTEX
  5
3AA
100
AcDbEntity
  8
0
100
AcDbVertex
100
AcDb2dVertex
 10
163.761032
 20
180.639267
 30
0.0
  0
VERTEX
  5
3AB
100
AcDbEntity
  8
0
100
AcDbVertex
100
AcDb2dVertex
 10
163.981216
 20
180.944397
 30
0.0
  0
VERTEX
  5
3AC
100
AcDbEntity
  8
0
100
AcDbVertex
100
AcDb2dVertex
 10
164.281082
 20
181.171936
 30
0.0
  0
VERTEX
  5
3AD
100
AcDbEntity
  8
0
100
AcDbVertex
100
AcDb2dVertex
 10
164.707214
 20
181.32016
 30
0.0
  0
VERTEX
  5
3AE
100
AcDbEntity
  8
0
100
AcDbVertex
100
AcDb2dVertex
 10
164.932816
 20
181.338989
 30
0.0
  0
SEQEND
  5
3AF
100
AcDbEntity
  8
0
  0
POLYLINE
  5
3B0
100
AcDbEntity
  8
0
 62
     7
100
AcDb2dPolyline
 66
     1
 10
0.0
 20
0.0
 30
0.0
 71
     7
  0
VERTEX
  5
3B1
100
AcDbEntity
  8
0
100
AcDbVertex
100
AcDb2dVertex
 10
164.932816
 20
181.338989
 30
0.0
  0
VERTEX
  5
3B2
100
AcDbEntity
  8
0
100
AcDbVertex
100
AcDb2dVertex
 10
165.37973
 20
181.263397
 30
0.0
  0
VERTEX
  5
3B3
100
AcDbEntity
  8
0
100
AcDbVertex
100
AcDb2dVertex
 10
165.715408
 20
181.089294
 30
0.0
  0
VERTEX
  5
3B4
100
AcDbEntity
  8
0
100
AcDbVertex
100
AcDb2dVertex
 10
165.986801
 20
180.82608
 30
0.0
  0
VERTEX
  5
3B5
100
AcDbEntity
  8
0
100
AcDbVertex
100
AcDb2dVertex
 10
166.167404
 20
180.494095
 30
0.0
  0
VERTEX
  5
3B6
100
AcDbEntity
  8
0
100
AcDbVertex
100
AcDb2dVertex
 10
166.237366
 20
180.122803
 30
0.0
  0
VERTEX
  5
3B7
100
AcDbEntity
  8
0
100
AcDbVertex
100
AcDb2dVertex
 10
166.222198
 20
179.896027
 30
0.0
  0
SEQEND
  5
3B8
100
AcDbEntity
  8
0
  0
POLYLINE
  5
3B9
100
AcDbEntity
  8
0
 62
     7
100
AcDb2dPolyline
 66
     1
 10
0.0
 20
0.0
 30
0.0
 71
     6
  0
VERTEX
  5
3BA
100
AcDbEntity
  8
0
100
AcDbVertex
100
AcDb2dVertex
 10
166.222198
 20
179.896027
 30
0.0
  0
VERTEX
  5
3BB
100
AcDbEntity
  8
0
100
AcDbVertex
100
AcDb2dVertex
 10
166.088516
 20
179.508362
 30
0.0
  0
VERTEX
  5
3BC
100
AcDbEntity
  8
0
100
AcDbVertex
100
AcDb2dVertex
 10
165.835037
 20
179.185822
 30
0.0
  0
VERTEX
  5
3BD
100
AcDbEntity
  8
0
100
AcDbVertex
100
AcDb2dVertex
 10
165.492493
 20
178.959778
 30
0.0
  0
VERTEX
  5
3BE
100
AcDbEntity
  8
0
100
AcDbVertex
100
AcDb2dVertex
 10
165.097244
 20
178.848938
 30
0.0
  0
VERTEX
  5
3BF
100
AcDbEntity
  8
0
100
AcDbVertex
100
AcDb2dVertex
 10
164.9328
 20
178.838989
 30
0.0
  0
SEQEND
  5
3C0
100
AcDbEntity
  8
0
  0
POLYLINE
  5
3C1
100
AcDbEntity
  8
0
 62
     7
100
AcDb2dPolyline
 66
     1
 10
0.0
 20
0.0
 30
0.0
 71
     7
  0
VERTEX
  5
3C2
100
AcDbEntity
  8
0
100
AcDbVertex
100
AcDb2dVertex
 10
164.9328
 20
178.838989
 30
0.0
  0
VERTEX
  5
3C3
100
AcDbEntity
  8
0
100
AcDbVertex
100
AcDb2dVertex
 10
164.531281
 20
178.899628
 30
0.0
  0
VERTEX
  5
3C4
100
AcDbEntity
  8
0
100
AcDbVertex
100
AcDb2dVertex
 10
164.16629
 20
179.077332
 30
0.0
  0
VERTEX
  5
3C5
100
AcDbEntity
  8
0
100
AcDbVertex
100
AcDb2dVertex
 10
163.873718
 20
179.358612
 30
0.0
  0
VERTEX
  5
3C6
100
AcDbEntity
  8
0
100
AcDbVertex
100
AcDb2dVertex
 10
163.686432
 20
179.718445
 30
0.0
  0
VERTEX
  5
3C7
100
AcDbEntity
  8
0
100
AcDbVertex
100
AcDb2dVertex
 10
163.628174
 20
180.119781
 30
0.0
  0
VERTEX
  5
3C8
100
AcDbEntity
  8
0
100
AcDbVertex
100
AcDb2dVertex
 10
163.643417
 20
180.281952
 30
0.0
  0
SEQEND
  5
3C9
100
AcDbEntity
  8
0
  0
ELLIPSE
  5
3CA
100
AcDbEntity
  8
0
 62
     7
100
AcDbEllipse
 10
139.746552
 20
105.0
 30
0.0
 11
0.0
 21
-43.0
 31
0.0
210
0.0
220
0.0
230
1.0
 40
0.957826
 41
5.7035775184631348
 42
6.2832183837890625
  0
ELLIPSE
  5
3CB
100
AcDbEntity
  8
0
 62
     7
100
AcDbEllipse
 10
140.654434
 20
105.0
 30
0.0
 11
0.0
 21
49.5
 31
0.0
210
0.0
220
0.0
230
1.0
 40
0.957826
 41
3.263289213180542
 42
3.7574775218963623
  0
ELLIPSE
  5
3CC
100
AcDbEntity
  8
0
 62
     7
100
AcDbEllipse
 10
139.746552
 20
105.0
 30
0.0
 11
0.0
 21
43.0
 31
0.0
210
0.0
220
0.0
230
1.0
 40
0.957826
 41
0.0000330427101289
 42
0.5795789957046509
  0
ELLIPSE
  5
3CD
100
AcDbEntity
  8
0
 62
     7
100
AcDbEllipse
 10
140.654434
 20
105.0
 30
0.0
 11
0.0
 21
-49.5
 31
0.0
210
0.0
220
0.0
230
1.0
 40
0.957826
 41
2.5257081985473633
 42
3.0199034214019775
  0
LINE
  5
3CE
100
AcDbEntity
  8
0
 62
     7
 48
0.056009
100
AcDbLine
 10
186.186203
 20
133.623062
 30
0.0
 11
187.968277
 21
134.980774
 31
0.0
210
0.0
220
0.0
230
1.0
  0
ELLIPSE
  5
3CF
100
AcDbEntity
  8
0
 62
     7
100
AcDbEllipse
 10
152.684219
 20
105.000145
 30
0.0
 11
44.893142700195313
 21
-0.0018081665039063
 31
0.0
210
0.0
220
0.0
230
1.0
 40
0.957827
 41
0.6304475069046021
 42
1.5708284378051758
  0
ELLIPSE
  5
3D0
100
AcDbEntity
  8
0
 62
     7
100
AcDbEllipse
 10
152.684036
 20
104.999985
 30
0.0
 11
44.893325805664062
 21
-0.00018310546875
 31
0.0
210
0.0
220
0.0
230
1.0
 40
0.957826
 41
1.5707900524139404
 42
3.7720036506652832
  0
ELLIPSE
  5
3D1
100
AcDbEntity
  8
0
 62
     7
100
AcDbEllipse
 10
139.618423
 20
105.0
 30
0.0
 11
0.0
 21
-42.0
 31
0.0
210
0.0
220
0.0
230
1.0
 40
0.957826
 41
0.1560125797986984
 42
0.9220024347305298
  0
ELLIPSE
  5
3D2
100
AcDbEntity
  8
0
 62
     7
100
AcDbEllipse
 10
139.618423
 20
105.0
 30
0.0
 11
0.0
 21
-42.0
 31
0.0
210
0.0
220
0.0
230
1.0
 40
0.957826
 41
0.9547290802001953
 42
1.1304070949554443
  0
ELLIPSE
  5
3D3
100
AcDbEntity
  8
0
 62
     7
100
AcDbEllipse
 10
139.618423
 20
105.0
 30
0.0
 11
0.0
 21
42.0
 31
0.0
210
0.0
220
0.0
230
1.0
 40
0.957826
 41
5.2105636596679687
 42
5.3332748413085937
  0
ELLIPSE
  5
3D4
100
AcDbEntity
  8
0
 62
     7
100
AcDbEllipse
 10
139.618423
 20
105.0
 30
0.0
 11
0.0
 21
42.0
 31
0.0
210
0.0
220
0.0
230
1.0
 40
0.957826
 41
4.967038631439209
 42
5.1580653190612793
  0
ELLIPSE
  5
3D5
100
AcDbEntity
  8
0
 62
     7
100
AcDbEllipse
 10
139.618423
 20
105.0
 30
0.0
 11
0.0
 21
42.0
 31
0.0
210
0.0
220
0.0
230
1.0
 40
0.957826
 41
4.5216727256774902
 42
4.9059791564941406
  0
ELLIPSE
  5
3D6
100
AcDbEntity
  8
0
 62
     7
100
AcDbEllipse
 10
139.618423
 20
105.0
 30
0.0
 11
0.0
 21
42.0
 31
0.0
210
0.0
220
0.0
230
1.0
 40
0.957826
 41
4.2719998359680176
 42
4.460669994354248
  0
ELLIPSE
  5
3D7
100
AcDbEntity
  8
0
 62
     7
100
AcDbEllipse
 10
150.528915
 20
105.0
 30
0.0
 11
0.0
 21
-42.0
 31
0.0
210
0.0
220
0.0
230
1.0
 40
0.957826
 41
2.1773917675018311
 42
2.2250151634216309
  0
ELLIPSE
  5
3D8
100
AcDbEntity
  8
0
 62
     7
100
AcDbEllipse
 10
152.684006
 20
105.000015
 30
0.0
 11
43.84930419921875
 21
-0.00018310546875
 31
0.0
210
0.0
220
0.0
230
1.0
 40
0.957826
 41
4.7123823165893555
 42
6.9135961532592773
  0
ELLIPSE
  5
3D9
100
AcDbEntity
  8
0
 62
     7
100
AcDbEllipse
 10
152.684708
 20
105.001144
 30
0.0
 11
43.850128173828125
 21
0.0072860717773438
 31
0.0
210
0.0
220
0.0
230
1.0
 40
0.957834
 41
3.7718400955200195
 42
4.7122030258178711
  0
ELLIPSE
  5
3DA
100
AcDbEntity
  8
0
 62
     7
100
AcDbEllipse
 10
137.023544
 20
105.0
 30
0.0
 11
0.0
 21
-0.0105819702148438
 31
0.0
210
0.0
220
0.0
230
1.0
 40
0.957826
 41
1.1304070949554443
 42
7.4135923385620117
  0
ELLIPSE
  5
3DB
100
AcDbEntity
  8
0
 62
     7
100
AcDbEllipse
 10
139.618423
 20
105.0
 30
0.0
 11
0.0
 21
-42.0
 31
0.0
210
0.0
220
0.0
230
1.0
 40
0.957826
 41
2.2207059860229492
 42
2.9855692386627197
  0
POLYLINE
  5
3DC
100
AcDbEntity
  8
0
 62
     7
100
AcDb2dPolyline
 66
     1
 10
0.0
 20
0.0
 30
0.0
 71
     8
  0
VERTEX
  5
3DD
100
AcDbEntity
  8
0
100
AcDbVertex
100
AcDb2dVertex
 10
154.194977
 20
130.039902
 30
0.0
  0
VERTEX
  5
3DE
100
AcDbEntity
  8
0
100
AcDbVertex
100
AcDb2dVertex
 10
153.977463
 20
129.655594
 30
0.0
  0
VERTEX
  5
3DF
100
AcDbEntity
  8
0
100
AcDbVertex
100
AcDb2dVertex
 10
153.899078
 20
129.236542
 30
0.0
  0
VERTEX
  5
3E0
100
AcDbEntity
  8
0
100
AcDbVertex
100
AcDb2dVertex
 10
153.961075
 20
128.836395
 30
0.0
  0
VERTEX
  5
3E1
100
AcDbEntity
  8
0
100
AcDbVertex
100
AcDb2dVertex
 10
154.145767
 20
128.495636
 30
0.0
  0
VERTEX
  5
3E2
100
AcDbEntity
  8
0
100
AcDbVertex
100
AcDb2dVertex
 10
154.429398
 20
128.240555
 30
0.0
  0
VERTEX
  5
3E3
100
AcDbEntity
  8
0
100
AcDbVertex
100
AcDb2dVertex
 10
154.787506
 20
128.09053
 30
0.0
  0
VERTEX
  5
3E4
100
AcDbEntity
  8
0
100
AcDbVertex
100
AcDb2dVertex
 10
155.074051
 20
128.057281
 30
0.0
  0
SEQEND
  5
3E5
100
AcDbEntity
  8
0
  0
ARC
  5
3E6
100
AcDbEntity
  8
0
 62
     7
100
AcDbCircle
 10
155.270859
 20
129.183914
 30
0.0
 40
1.374299
210
0.0
220
0.0
230
1.0
100
AcDbArc
 50
90.629971
 51
141.493639
  0
ELLIPSE
  5
3E7
100
AcDbEntity
  8
0
 62
     7
100
AcDbEllipse
 10
121.385422
 20
129.233459
 30
0.0
 11
-0.427978515625
 21
-1.1914443969726563
 31
0.0
210
0.0
220
0.0
230
1.0
 40
0.88222
 41
5.6496157646179199
 42
6.5903687477111816
  0
POLYLINE
  5
3E8
100
AcDbEntity
  8
0
 62
     7
100
AcDb2dPolyline
 66
     1
 10
0.0
 20
0.0
 30
0.0
 71
     8
  0
VERTEX
  5
3E9
100
AcDbEntity
  8
0
100
AcDbVertex
100
AcDb2dVertex
 10
121.475929
 20
130.483627
 30
0.0
  0
VERTEX
  5
3EA
100
AcDbEntity
  8
0
100
AcDbVertex
100
AcDb2dVertex
 10
121.1315
 20
130.425766
 30
0.0
  0
VERTEX
  5
3EB
100
AcDbEntity
  8
0
100
AcDbVertex
100
AcDb2dVertex
 10
120.811226
 20
130.25798
 30
0.0
  0
VERTEX
  5
3EC
100
AcDbEntity
  8
0
100
AcDbVertex
100
AcDb2dVertex
 10
120.506325
 20
129.944458
 30
0.0
  0
VERTEX
  5
3ED
100
AcDbEntity
  8
0
100
AcDbVertex
100
AcDb2dVertex
 10
120.311035
 20
129.540756
 30
0.0
  0
VERTEX
  5
3EE
100
AcDbEntity
  8
0
100
AcDbVertex
100
AcDb2dVertex
 10
120.251053
 20
129.095337
 30
0.0
  0
VERTEX
  5
3EF
100
AcDbEntity
  8
0
100
AcDbVertex
100
AcDb2dVertex
 10
120.316208
 20
128.721893
 30
0.0
  0
VERTEX
  5
3F0
100
AcDbEntity
  8
0
100
AcDbVertex
100
AcDb2dVertex
 10
120.418221
 20
128.49678
 30
0.0
  0
SEQEND
  5
3F1
100
AcDbEntity
  8
0
  0
ELLIPSE
  5
3F2
100
AcDbEntity
  8
0
 62
     7
100
AcDbEllipse
 10
138.263687
 20
134.999771
 30
0.0
 11
-0.713653564453125
 21
-1.0704574584960937
 31
0.0
210
0.0
220
0.0
230
1.0
 40
0.903868
 41
3.6838059425354004
 42
6.8249831199645996
  0
ELLIPSE
  5
3F3
100
AcDbEntity
  8
0
 62
     7
100
AcDbEllipse
 10
165.633621
 20
114.330185
 30
0.0
 11
1.2573699951171875
 21
0.3638916015625
 31
0.0
210
0.0
220
0.0
230
1.0
 40
0.951164
 41
2.8895738124847412
 42
4.4168648719787598
  0
POLYLINE
  5
3F4
100
AcDbEntity
  8
0
 62
     7
100
AcDb2dPolyline
 66
     1
 10
0.0
 20
0.0
 30
0.0
 71
    10
  0
VERTEX
  5
3F5
100
AcDbEntity
  8
0
100
AcDbVertex
100
AcDb2dVertex
 10
165.636078
 20
97.039101
 30
0.0
  0
VERTEX
  5
3F6
100
AcDbEntity
  8
0
100
AcDbVertex
100
AcDb2dVertex
 10
165.202332
 20
96.967155
 30
0.0
  0
VERTEX
  5
3F7
100
AcDbEntity
  8
0
100
AcDbVertex
100
AcDb2dVertex
 10
164.831589
 20
96.76693
 30
0.0
  0
VERTEX
  5
3F8
100
AcDbEntity
  8
0
100
AcDbVertex
100
AcDb2dVertex
 10
164.55867
 20
96.470131
 30
0.0
  0
VERTEX
  5
3F9
100
AcDbEntity
  8
0
100
AcDbVertex
100
AcDb2dVertex
 10
164.401657
 20
96.109528
 30
0.0
  0
VERTEX
  5
3FA
100
AcDbEntity
  8
0
100
AcDbVertex
100
AcDb2dVertex
 10
164.37114
 20
95.715836
 30
0.0
  0
VERTEX
  5
3FB
100
AcDbEntity
  8
0
100
AcDbVertex
100
AcDb2dVertex
 10
164.474487
 20
95.321289
 30
0.0
  0
VERTEX
  5
3FC
100
AcDbEntity
  8
0
100
AcDbVertex
100
AcDb2dVertex
 10
164.711792
 20
94.966286
 30
0.0
  0
VERTEX
  5
3FD
100
AcDbEntity
  8
0
100
AcDbVertex
100
AcDb2dVertex
 10
165.064713
 20
94.697884
 30
0.0
  0
VERTEX
  5
3FE
100
AcDbEntity
  8
0
100
AcDbVertex
100
AcDb2dVertex
 10
165.30307
 20
94.59948
 30
0.0
  0
SEQEND
  5
3FF
100
AcDbEntity
  8
0
  0
ARC
  5
400
100
AcDbEntity
  8
0
 62
     7
100
AcDbCircle
 10
165.705597
 20
95.910896
 30
0.0
 40
1.371805
210
0.0
220
0.0
230
1.0
100
AcDbArc
 50
252.936279
 51
269.977137
  0
POLYLINE
  5
401
100
AcDbEntity
  8
0
 62
     7
100
AcDb2dPolyline
 66
     1
 10
0.0
 20
0.0
 30
0.0
 71
    10
  0
VERTEX
  5
402
100
AcDbEntity
  8
0
100
AcDbVertex
100
AcDb2dVertex
 10
150.984161
 20
101.644554
 30
0.0
  0
VERTEX
  5
403
100
AcDbEntity
  8
0
100
AcDbVertex
100
AcDb2dVertex
 10
150.592148
 20
101.58107
 30
0.0
  0
VERTEX
  5
404
100
AcDbEntity
  8
0
100
AcDbVertex
100
AcDb2dVertex
 10
150.250153
 20
101.403404
 30
0.0
  0
VERTEX
  5
405
100
AcDbEntity
  8
0
100
AcDbVertex
100
AcDb2dVertex
 10
149.982407
 20
101.131432
 30
0.0
  0
VERTEX
  5
406
100
AcDbEntity
  8
0
100
AcDbVertex
100
AcDb2dVertex
 10
149.804642
 20
100.769379
 30
0.0
  0
VERTEX
  5
407
100
AcDbEntity
  8
0
100
AcDbVertex
100
AcDb2dVertex
 10
149.752823
 20
100.366852
 30
0.0
  0
VERTEX
  5
408
100
AcDbEntity
  8
0
100
AcDbVertex
100
AcDb2dVertex
 10
149.826324
 20
99.985413
 30
0.0
  0
VERTEX
  5
409
100
AcDbEntity
  8
0
100
AcDbVertex
100
AcDb2dVertex
 10
150.015976
 20
99.639061
 30
0.0
  0
VERTEX
  5
40A
100
AcDbEntity
  8
0
100
AcDbVertex
100
AcDb2dVertex
 10
150.312653
 20
99.360664
 30
0.0
  0
VERTEX
  5
40B
100
AcDbEntity
  8
0
100
AcDbVertex
100
AcDb2dVertex
 10
150.633148
 20
99.204926
 30
0.0
  0
SEQEND
  5
40C
100
AcDbEntity
  8
0
  0
ARC
  5
40D
100
AcDbEntity
  8
0
 62
     7
100
AcDbCircle
 10
151.017807
 20
100.399818
 30
0.0
 40
1.255274
210
0.0
220
0.0
230
1.0
100
AcDbArc
 50
252.15563
 51
269.982068
  0
ARC
  5
40E
100
AcDbEntity
  8
0
 62
     7
100
AcDbCircle
 10
128.820541
 20
116.962387
 30
0.0
 40
1.096134
210
0.0
220
0.0
230
1.0
100
AcDbArc
 50
212.068717
 51
269.688104
  0
POLYLINE
  5
40F
100
AcDbEntity
  8
0
 62
     7
100
AcDb2dPolyline
 66
     1
 10
0.0
 20
0.0
 30
0.0
 71
     8
  0
VERTEX
  5
410
100
AcDbEntity
  8
0
100
AcDbVertex
100
AcDb2dVertex
 10
128.901886
 20
118.366814
 30
0.0
  0
VERTEX
  5
411
100
AcDbEntity
  8
0
100
AcDbVertex
100
AcDb2dVertex
 10
128.526428
 20
118.30098
 30
0.0
  0
VERTEX
  5
412
100
AcDbEntity
  8
0
100
AcDbVertex
100
AcDb2dVertex
 10
128.20195
 20
118.123001
 30
0.0
  0
VERTEX
  5
413
100
AcDbEntity
  8
0
100
AcDbVertex
100
AcDb2dVertex
 10
127.939568
 20
117.84938
 30
0.0
  0
VERTEX
  5
414
100
AcDbEntity
  8
0
100
AcDbVertex
100
AcDb2dVertex
 10
127.757523
 20
117.485435
 30
0.0
  0
VERTEX
  5
415
100
AcDbEntity
  8
0
100
AcDbVertex
100
AcDb2dVertex
 10
127.692574
 20
117.110863
 30
0.0
  0
VERTEX
  5
416
100
AcDbEntity
  8
0
100
AcDbVertex
100
AcDb2dVertex
 10
127.728851
 20
116.759575
 30
0.0
  0
VERTEX
  5
417
100
AcDbEntity
  8
0
100
AcDbVertex
100
AcDb2dVertex
 10
127.890961
 20
116.379974
 30
0.0
  0
SEQEND
  5
418
100
AcDbEntity
  8
0
  0
ARC
  5
419
100
AcDbEntity
  8
0
 62
     7
100
AcDbCircle
 10
145.830688
 20
117.100555
 30
0.0
 40
1.31368
210
0.0
220
0.0
230
1.0
100
AcDbArc
 50
143.266469
 51
155.50293
  0
ARC
  5
41A
100
AcDbEntity
  8
0
 62
     7
100
AcDbCircle
 10
145.700211
 20
117.07901
 30
0.0
 40
1.175185
210
0.0
220
0.0
230
1.0
100
AcDbArc
 50
204.849535
 51
270.194439
  0
ARC
  5
41B
100
AcDbEntity
  8
0
 62
     7
100
AcDbCircle
 10
145.803055
 20
117.132462
 30
0.0
 40
1.271886
210
0.0
220
0.0
230
1.0
100
AcDbArc
 50
90.502329
 51
143.673521
  0
LINE
  5
41C
100
AcDbEntity
  8
0
 62
     7
100
AcDbLine
 10
123.103149
 20
85.562027
 30
0.0
 11
182.163986
 21
130.55867
 31
0.0
210
0.0
220
0.0
230
1.0
  0
LINE
  5
41D
100
AcDbEntity
  8
0
 62
     7
 48
0.061897
100
AcDbLine
 10
123.103149
 20
85.562027
 30
0.0
 11
123.103149
 21
83.086128
 31
0.0
210
0.0
220
0.0
230
1.0
  0
ARC
  5
41E
100
AcDbEntity
  8
0
 62
     7
100
AcDbCircle
 10
171.049805
 20
129.382202
 30
0.0
 40
1.324301
210
0.0
220
0.0
230
1.0
100
AcDbArc
 50
269.603881
 51
322.40027
  0
POLYLINE
  5
41F
100
AcDbEntity
  8
0
 62
     7
100
AcDb2dPolyline
 66
     1
 10
0.0
 20
0.0
 30
0.0
 71
     8
  0
VERTEX
  5
420
100
AcDbEntity
  8
0
100
AcDbVertex
100
AcDb2dVertex
 10
171.040649
 20
128.057281
 30
0.0
  0
VERTEX
  5
421
100
AcDbEntity
  8
0
100
AcDbVertex
100
AcDb2dVertex
 10
170.595947
 20
128.132233
 30
0.0
  0
VERTEX
  5
422
100
AcDbEntity
  8
0
100
AcDbVertex
100
AcDb2dVertex
 10
170.201385
 20
128.350357
 30
0.0
  0
VERTEX
  5
423
100
AcDbEntity
  8
0
100
AcDbVertex
100
AcDb2dVertex
 10
169.94632
 20
128.626801
 30
0.0
  0
VERTEX
  5
424
100
AcDbEntity
  8
0
100
AcDbVertex
100
AcDb2dVertex
 10
169.7854
 20
128.966614
 30
0.0
  0
VERTEX
  5
425
100
AcDbEntity
  8
0
100
AcDbVertex
100
AcDb2dVertex
 10
169.73642
 20
129.339325
 30
0.0
  0
VERTEX
  5
426
100
AcDbEntity
  8
0
100
AcDbVertex
100
AcDb2dVertex
 10
169.805191
 20
129.708923
 30
0.0
  0
VERTEX
  5
427
100
AcDbEntity
  8
0
100
AcDbVertex
100
AcDb2dVertex
 10
169.983627
 20
130.039902
 30
0.0
  0
SEQEND
  5
428
100
AcDbEntity
  8
0
  0
ARC
  5
429
100
AcDbEntity
  8
0
 62
     7
100
AcDbCircle
 10
171.032257
 20
129.232361
 30
0.0
 40
1.324301
210
0.0
220
0.0
230
1.0
100
AcDbArc
 50
89.603879
 51
142.400264
  0
POLYLINE
  5
42A
100
AcDbEntity
  8
0
 62
     7
100
AcDb2dPolyline
 66
     1
 10
0.0
 20
0.0
 30
0.0
 71
     8
  0
VERTEX
  5
42B
100
AcDbEntity
  8
0
100
AcDbVertex
100
AcDb2dVertex
 10
171.041412
 20
130.557281
 30
0.0
  0
VERTEX
  5
42C
100
AcDbEntity
  8
0
100
AcDbVertex
100
AcDb2dVertex
 10
171.486115
 20
130.482346
 30
0.0
  0
VERTEX
  5
42D
100
AcDbEntity
  8
0
100
AcDbVertex
100
AcDb2dVertex
 10
171.880676
 20
130.264206
 30
0.0
  0
VERTEX
  5
42E
100
AcDbEntity
  8
0
100
AcDbVertex
100
AcDb2dVertex
 10
172.135742
 20
129.987762
 30
0.0
  0
VERTEX
  5
42F
100
AcDbEntity
  8
0
100
AcDbVertex
100
AcDb2dVertex
 10
172.296661
 20
129.647964
 30
0.0
  0
VERTEX
  5
430
100
AcDbEntity
  8
0
100
AcDbVertex
100
AcDb2dVertex
 10
172.345642
 20
129.275253
 30
0.0
  0
VERTEX
  5
431
100
AcDbEntity
  8
0
100
AcDbVertex
100
AcDb2dVertex
 10
172.276871
 20
128.905655
 30
0.0
  0
VERTEX
  5
432
100
AcDbEntity
  8
0
100
AcDbVertex
100
AcDb2dVertex
 10
172.098434
 20
128.574677
 30
0.0
  0
SEQEND
  5
433
100
AcDbEntity
  8
0
  0
ARC
  5
434
100
AcDbEntity
  8
0
 62
     7
100
AcDbCircle
 10
182.452087
 20
114.437675
 30
0.0
 40
1.357588
210
0.0
220
0.0
230
1.0
100
AcDbArc
 50
269.983953
 51
287.37871
  0
POLYLINE
  5
435
100
AcDbEntity
  8
0
 62
     7
100
AcDb2dPolyline
 66
     1
 10
0.0
 20
0.0
 30
0.0
 71
    10
  0
VERTEX
  5
436
100
AcDbEntity
  8
0
100
AcDbVertex
100
AcDb2dVertex
 10
182.451706
 20
113.080086
 30
0.0
  0
VERTEX
  5
437
100
AcDbEntity
  8
0
100
AcDbVertex
100
AcDb2dVertex
 10
182.042526
 20
113.143112
 30
0.0
  0
VERTEX
  5
438
100
AcDbEntity
  8
0
100
AcDbVertex
100
AcDb2dVertex
 10
181.672028
 20
113.32769
 30
0.0
  0
VERTEX
  5
439
100
AcDbEntity
  8
0
100
AcDbVertex
100
AcDb2dVertex
 10
181.378296
 20
113.619133
 30
0.0
  0
VERTEX
  5
43A
100
AcDbEntity
  8
0
100
AcDbVertex
100
AcDb2dVertex
 10
181.195816
 20
113.990265
 30
0.0
  0
VERTEX
  5
43B
100
AcDbEntity
  8
0
100
AcDbVertex
100
AcDb2dVertex
 10
181.148773
 20
114.401047
 30
0.0
  0
VERTEX
  5
43C
100
AcDbEntity
  8
0
100
AcDbVertex
100
AcDb2dVertex
 10
181.243866
 20
114.803452
 30
0.0
  0
VERTEX
  5
43D
100
AcDbEntity
  8
0
100
AcDbVertex
100
AcDb2dVertex
 10
181.467773
 20
115.151245
 30
0.0
  0
VERTEX
  5
43E
100
AcDbEntity
  8
0
100
AcDbVertex
100
AcDb2dVertex
 10
181.791885
 20
115.408546
 30
0.0
  0
VERTEX
  5
43F
100
AcDbEntity
  8
0
100
AcDbVertex
100
AcDb2dVertex
 10
182.045837
 20
115.518089
 30
0.0
  0
SEQEND
  5
440
100
AcDbEntity
  8
0
  0
ARC
  5
441
100
AcDbEntity
  8
0
 62
     7
100
AcDbCircle
 10
182.451324
 20
114.222481
 30
0.0
 40
1.357588
210
0.0
220
0.0
230
1.0
100
AcDbArc
 50
89.983958
 51
107.378709
  0
POLYLINE
  5
442
100
AcDbEntity
  8
0
 62
     7
100
AcDb2dPolyline
 66
     1
 10
0.0
 20
0.0
 30
0.0
 71
    10
  0
VERTEX
  5
443
100
AcDbEntity
  8
0
100
AcDbVertex
100
AcDb2dVertex
 10
182.451706
 20
115.580078
 30
0.0
  0
VERTEX
  5
444
100
AcDbEntity
  8
0
100
AcDbVertex
100
AcDb2dVertex
 10
182.860886
 20
115.517052
 30
0.0
  0
VERTEX
  5
445
100
AcDbEntity
  8
0
100
AcDbVertex
100
AcDb2dVertex
 10
183.231384
 20
115.332474
 30
0.0
  0
VERTEX
  5
446
100
AcDbEntity
  8
0
100
AcDbVertex
100
AcDb2dVertex
 10
183.525101
 20
115.041031
 30
0.0
  0
VERTEX
  5
447
100
AcDbEntity
  8
0
100
AcDbVertex
100
AcDb2dVertex
 10
183.707581
 20
114.669899
 30
0.0
  0
VERTEX
  5
448
100
AcDbEntity
  8
0
100
AcDbVertex
100
AcDb2dVertex
 10
183.754639
 20
114.259117
 30
0.0
  0
VERTEX
  5
449
100
AcDbEntity
  8
0
100
AcDbVertex
100
AcDb2dVertex
 10
183.659546
 20
113.856705
 30
0.0
  0
VERTEX
  5
44A
100
AcDbEntity
  8
0
100
AcDbVertex
100
AcDb2dVertex
 10
183.435638
 20
113.508911
 30
0.0
  0
VERTEX
  5
44B
100
AcDbEntity
  8
0
100
AcDbVertex
100
AcDb2dVertex
 10
183.111526
 20
113.251617
 30
0.0
  0
VERTEX
  5
44C
100
AcDbEntity
  8
0
100
AcDbVertex
100
AcDb2dVertex
 10
182.857574
 20
113.142067
 30
0.0
  0
SEQEND
  5
44D
100
AcDbEntity
  8
0
  0
ARC
  5
44E
100
AcDbEntity
  8
0
 62
     7
100
AcDbCircle
 10
161.871277
 20
117.2285
 30
0.0
 40
1.324254
210
0.0
220
0.0
230
1.0
100
AcDbArc
 50
269.604734
 51
322.402985
  0
POLYLINE
  5
44F
100
AcDbEntity
  8
0
 62
     7
100
AcDb2dPolyline
 66
     1
 10
0.0
 20
0.0
 30
0.0
 71
     8
  0
VERTEX
  5
450
100
AcDbEntity
  8
0
100
AcDbVertex
100
AcDb2dVertex
 10
161.862137
 20
115.903648
 30
0.0
  0
VERTEX
  5
451
100
AcDbEntity
  8
0
100
AcDbVertex
100
AcDb2dVertex
 10
161.468735
 20
115.961906
 30
0.0
  0
VERTEX
  5
452
100
AcDbEntity
  8
0
100
AcDbVertex
100
AcDb2dVertex
 10
161.109634
 20
116.132637
 30
0.0
  0
VERTEX
  5
453
100
AcDbEntity
  8
0
100
AcDbVertex
100
AcDb2dVertex
 10
160.818649
 20
116.40345
 30
0.0
  0
VERTEX
  5
454
100
AcDbEntity
  8
0
100
AcDbVertex
100
AcDb2dVertex
 10
160.626892
 20
116.751442
 30
0.0
  0
VERTEX
  5
455
100
AcDbEntity
  8
0
100
AcDbVertex
100
AcDb2dVertex
 10
160.557541
 20
117.14254
 30
0.0
  0
VERTEX
  5
456
100
AcDbEntity
  8
0
100
AcDbVertex
100
AcDb2dVertex
 10
160.619659
 20
117.534882
 30
0.0
  0
VERTEX
  5
457
100
AcDbEntity
  8
0
100
AcDbVertex
100
AcDb2dVertex
 10
160.80513
 20
117.886261
 30
0.0
  0
SEQEND
  5
458
100
AcDbEntity
  8
0
  0
ARC
  5
459
100
AcDbEntity
  8
0
 62
     7
100
AcDbCircle
 10
161.853775
 20
117.078781
 30
0.0
 40
1.324254
210
0.0
220
0.0
230
1.0
100
AcDbArc
 50
89.604733
 51
142.402983
  0
POLYLINE
  5
45A
100
AcDbEntity
  8
0
 62
     7
100
AcDb2dPolyline
 66
     1
 10
0.0
 20
0.0
 30
0.0
 71
     8
  0
VERTEX
  5
45B
100
AcDbEntity
  8
0
100
AcDbVertex
100
AcDb2dVertex
 10
161.862915
 20
118.403641
 30
0.0
  0
VERTEX
  5
45C
100
AcDbEntity
  8
0
100
AcDbVertex
100
AcDb2dVertex
 10
162.256317
 20
118.345375
 30
0.0
  0
VERTEX
  5
45D
100
AcDbEntity
  8
0
100
AcDbVertex
100
AcDb2dVertex
 10
162.615417
 20
118.174644
 30
0.0
  0
VERTEX
  5
45E
100
AcDbEntity
  8
0
100
AcDbVertex
100
AcDb2dVertex
 10
162.906403
 20
117.903831
 30
0.0
  0
VERTEX
  5
45F
100
AcDbEntity
  8
0
100
AcDbVertex
100
AcDb2dVertex
 10
163.09816
 20
117.555847
 30
0.0
  0
VERTEX
  5
460
100
AcDbEntity
  8
0
100
AcDbVertex
100
AcDb2dVertex
 10
163.167511
 20
117.164742
 30
0.0
  0
VERTEX
  5
461
100
AcDbEntity
  8
0
100
AcDbVertex
100
AcDb2dVertex
 10
163.105377
 20
116.7724
 30
0.0
  0
VERTEX
  5
462
100
AcDbEntity
  8
0
100
AcDbVertex
100
AcDb2dVertex
 10
162.919922
 20
116.421028
 30
0.0
  0
SEQEND
  5
463
100
AcDbEntity
  8
0
  0
ARC
  5
464
100
AcDbEntity
  8
0
 62
     7
100
AcDbCircle
 10
134.318237
 20
80.61779
 30
0.0
 40
1.324301
210
0.0
220
0.0
230
1.0
100
AcDbArc
 50
89.603879
 51
142.400264
  0
POLYLINE
  5
465
100
AcDbEntity
  8
0
 62
     7
100
AcDb2dPolyline
 66
     1
 10
0.0
 20
0.0
 30
0.0
 71
     8
  0
VERTEX
  5
466
100
AcDbEntity
  8
0
100
AcDbVertex
100
AcDb2dVertex
 10
134.327393
 20
81.942711
 30
0.0
  0
VERTEX
  5
467
100
AcDbEntity
  8
0
100
AcDbVertex
100
AcDb2dVertex
 10
134.772079
 20
81.867767
 30
0.0
  0
VERTEX
  5
468
100
AcDbEntity
  8
0
100
AcDbVertex
100
AcDb2dVertex
 10
135.166641
 20
81.649643
 30
0.0
  0
VERTEX
  5
469
100
AcDbEntity
  8
0
100
AcDbVertex
100
AcDb2dVertex
 10
135.421722
 20
81.373199
 30
0.0
  0
VERTEX
  5
46A
100
AcDbEntity
  8
0
100
AcDbVertex
100
AcDb2dVertex
 10
135.582642
 20
81.033386
 30
0.0
  0
VERTEX
  5
46B
100
AcDbEntity
  8
0
100
AcDbVertex
100
AcDb2dVertex
 10
135.631622
 20
80.660675
 30
0.0
  0
VERTEX
  5
46C
100
AcDbEntity
  8
0
100
AcDbVertex
100
AcDb2dVertex
 10
135.562836
 20
80.291077
 30
0.0
  0
VERTEX
  5
46D
100
AcDbEntity
  8
0
100
AcDbVertex
100
AcDb2dVertex
 10
135.384399
 20
79.960098
 30
0.0
  0
SEQEND
  5
46E
100
AcDbEntity
  8
0
  0
ARC
  5
46F
100
AcDbEntity
  8
0
 62
     7
100
AcDbCircle
 10
134.335785
 20
80.767639
 30
0.0
 40
1.324301
210
0.0
220
0.0
230
1.0
100
AcDbArc
 50
269.603881
 51
322.40027
  0
POLYLINE
  5
470
100
AcDbEntity
  8
0
 62
     7
100
AcDb2dPolyline
 66
     1
 10
0.0
 20
0.0
 30
0.0
 71
     8
  0
VERTEX
  5
471
100
AcDbEntity
  8
0
100
AcDbVertex
100
AcDb2dVertex
 10
134.32663
 20
79.442719
 30
0.0
  0
VERTEX
  5
472
100
AcDbEntity
  8
0
100
AcDbVertex
100
AcDb2dVertex
 10
133.881927
 20
79.517654
 30
0.0
  0
VERTEX
  5
473
100
AcDbEntity
  8
0
100
AcDbVertex
100
AcDb2dVertex
 10
133.487366
 20
79.735786
 30
0.0
  0
VERTEX
  5
474
100
AcDbEntity
  8
0
100
AcDbVertex
100
AcDb2dVertex
 10
133.2323
 20
80.01223
 30
0.0
  0
VERTEX
  5
475
100
AcDbEntity
  8
0
100
AcDbVertex
100
AcDb2dVertex
 10
133.071381
 20
80.352043
 30
0.0
  0
VERTEX
  5
476
100
AcDbEntity
  8
0
100
AcDbVertex
100
AcDb2dVertex
 10
133.0224
 20
80.724754
 30
0.0
  0
VERTEX
  5
477
100
AcDbEntity
  8
0
100
AcDbVertex
100
AcDb2dVertex
 10
133.091171
 20
81.094345
 30
0.0
  0
VERTEX
  5
478
100
AcDbEntity
  8
0
100
AcDbVertex
100
AcDb2dVertex
 10
133.269608
 20
81.425331
 30
0.0
  0
SEQEND
  5
479
100
AcDbEntity
  8
0
  0
ARC
  5
47A
100
AcDbEntity
  8
0
 62
     7
100
AcDbCircle
 10
122.915955
 20
95.562325
 30
0.0
 40
1.357588
210
0.0
220
0.0
230
1.0
100
AcDbArc
 50
89.983958
 51
107.378709
  0
POLYLINE
  5
47B
100
AcDbEntity
  8
0
 62
     7
100
AcDb2dPolyline
 66
     1
 10
0.0
 20
0.0
 30
0.0
 71
    10
  0
VERTEX
  5
47C
100
AcDbEntity
  8
0
100
AcDbVertex
100
AcDb2dVertex
 10
122.916336
 20
96.919914
 30
0.0
  0
VERTEX
  5
47D
100
AcDbEntity
  8
0
100
AcDbVertex
100
AcDb2dVertex
 10
123.349701
 20
96.848984
 30
0.0
  0
VERTEX
  5
47E
100
AcDbEntity
  8
0
100
AcDbVertex
100
AcDb2dVertex
 10
123.736855
 20
96.641945
 30
0.0
  0
VERTEX
  5
47F
100
AcDbEntity
  8
0
100
AcDbVertex
100
AcDb2dVertex
 10
124.032494
 20
96.31765
 30
0.0
  0
VERTEX
  5
480
100
AcDbEntity
  8
0
100
AcDbVertex
100
AcDb2dVertex
 10
124.179901
 20
95.982536
 30
0.0
  0
VERTEX
  5
481
100
AcDbEntity
  8
0
100
AcDbVertex
100
AcDb2dVertex
 10
124.220276
 20
95.618713
 30
0.0
  0
VERTEX
  5
482
100
AcDbEntity
  8
0
100
AcDbVertex
100
AcDb2dVertex
 10
124.149071
 20
95.259644
 30
0.0
  0
VERTEX
  5
483
100
AcDbEntity
  8
0
100
AcDbVertex
100
AcDb2dVertex
 10
123.97422
 20
94.93795
 30
0.0
  0
VERTEX
  5
484
100
AcDbEntity
  8
0
100
AcDbVertex
100
AcDb2dVertex
 10
123.653465
 20
94.63842
 30
0.0
  0
VERTEX
  5
485
100
AcDbEntity
  8
0
100
AcDbVertex
100
AcDb2dVertex
 10
123.322205
 20
94.481911
 30
0.0
  0
SEQEND
  5
486
100
AcDbEntity
  8
0
  0
ARC
  5
487
100
AcDbEntity
  8
0
 62
     7
100
AcDbCircle
 10
122.916718
 20
95.777519
 30
0.0
 40
1.357588
210
0.0
220
0.0
230
1.0
100
AcDbArc
 50
269.983953
 51
287.37871
  0
POLYLINE
  5
488
100
AcDbEntity
  8
0
 62
     7
100
AcDb2dPolyline
 66
     1
 10
0.0
 20
0.0
 30
0.0
 71
    10
  0
VERTEX
  5
489
100
AcDbEntity
  8
0
100
AcDbVertex
100
AcDb2dVertex
 10
122.916336
 20
94.419922
 30
0.0
  0
VERTEX
  5
48A
100
AcDbEntity
  8
0
100
AcDbVertex
100
AcDb2dVertex
 10
122.507149
 20
94.482948
 30
0.0
  0
VERTEX
  5
48B
100
AcDbEntity
  8
0
100
AcDbVertex
100
AcDb2dVertex
 10
122.136658
 20
94.667526
 30
0.0
  0
VERTEX
  5
48C
100
AcDbEntity
  8
0
100
AcDbVertex
100
AcDb2dVertex
 10
121.842934
 20
94.958969
 30
0.0
  0
VERTEX
  5
48D
100
AcDbEntity
  8
0
100
AcDbVertex
100
AcDb2dVertex
 10
121.660446
 20
95.330101
 30
0.0
  0
VERTEX
  5
48E
100
AcDbEntity
  8
0
100
AcDbVertex
100
AcDb2dVertex
 10
121.613403
 20
95.740883
 30
0.0
  0
VERTEX
  5
48F
100
AcDbEntity
  8
0
100
AcDbVertex
100
AcDb2dVertex
 10
121.708496
 20
96.143295
 30
0.0
  0
VERTEX
  5
490
100
AcDbEntity
  8
0
100
AcDbVertex
100
AcDb2dVertex
 10
121.932404
 20
96.491089
 30
0.0
  0
VERTEX
  5
491
100
AcDbEntity
  8
0
100
AcDbVertex
100
AcDb2dVertex
 10
122.256516
 20
96.748383
 30
0.0
  0
VERTEX
  5
492
100
AcDbEntity
  8
0
100
AcDbVertex
100
AcDb2dVertex
 10
122.510468
 20
96.857933
 30
0.0
  0
SEQEND
  5
493
100
AcDbEntity
  8
0
  0
ARC
  5
494
100
AcDbEntity
  8
0
 62
     7
100
AcDbCircle
 10
137.799805
 20
100.227364
 30
0.0
 40
1.357588
210
0.0
220
0.0
230
1.0
100
AcDbArc
 50
89.983958
 51
107.378709
  0
POLYLINE
  5
495
100
AcDbEntity
  8
0
 62
     7
100
AcDb2dPolyline
 66
     1
 10
0.0
 20
0.0
 30
0.0
 71
    10
  0
VERTEX
  5
496
100
AcDbEntity
  8
0
100
AcDbVertex
100
AcDb2dVertex
 10
137.800171
 20
101.584953
 30
0.0
  0
VERTEX
  5
497
100
AcDbEntity
  8
0
100
AcDbVertex
100
AcDb2dVertex
 10
138.209366
 20
101.521927
 30
0.0
  0
VERTEX
  5
498
100
AcDbEntity
  8
0
100
AcDbVertex
100
AcDb2dVertex
 10
138.579849
 20
101.337349
 30
0.0
  0
VERTEX
  5
499
100
AcDbEntity
  8
0
100
AcDbVertex
100
AcDb2dVertex
 10
138.873581
 20
101.045906
 30
0.0
  0
VERTEX
  5
49A
100
AcDbEntity
  8
0
100
AcDbVertex
100
AcDb2dVertex
 10
139.056061
 20
100.674774
 30
0.0
  0
VERTEX
  5
49B
100
AcDbEntity
  8
0
100
AcDbVertex
100
AcDb2dVertex
 10
139.103104
 20
100.263992
 30
0.0
  0
VERTEX
  5
49C
100
AcDbEntity
  8
0
100
AcDbVertex
100
AcDb2dVertex
 10
139.008011
 20
99.861588
 30
0.0
  0
VERTEX
  5
49D
100
AcDbEntity
  8
0
100
AcDbVertex
100
AcDb2dVertex
 10
138.784103
 20
99.513794
 30
0.0
  0
VERTEX
  5
49E
100
AcDbEntity
  8
0
100
AcDbVertex
100
AcDb2dVertex
 10
138.459991
 20
99.2565
 30
0.0
  0
VERTEX
  5
49F
100
AcDbEntity
  8
0
100
AcDbVertex
100
AcDb2dVertex
 10
138.206055
 20
99.14695
 30
0.0
  0
SEQEND
  5
4A0
100
AcDbEntity
  8
0
  0
ARC
  5
4A1
100
AcDbEntity
  8
0
 62
     7
100
AcDbCircle
 10
137.800552
 20
100.442558
 30
0.0
 40
1.357588
210
0.0
220
0.0
230
1.0
100
AcDbArc
 50
269.983953
 51
287.37871
  0
POLYLINE
  5
4A2
100
AcDbEntity
  8
0
 62
     7
100
AcDb2dPolyline
 66
     1
 10
0.0
 20
0.0
 30
0.0
 71
    10
  0
VERTEX
  5
4A3
100
AcDbEntity
  8
0
100
AcDbVertex
100
AcDb2dVertex
 10
137.800171
 20
99.084961
 30
0.0
  0
VERTEX
  5
4A4
100
AcDbEntity
  8
0
100
AcDbVertex
100
AcDb2dVertex
 10
137.366806
 20
99.155891
 30
0.0
  0
VERTEX
  5
4A5
100
AcDbEntity
  8
0
100
AcDbVertex
100
AcDb2dVertex
 10
136.97966
 20
99.362938
 30
0.0
  0
VERTEX
  5
4A6
100
AcDbEntity
  8
0
100
AcDbVertex
100
AcDb2dVertex
 10
136.684021
 20
99.687225
 30
0.0
  0
VERTEX
  5
4A7
100
AcDbEntity
  8
0
100
AcDbVertex
100
AcDb2dVertex
 10
136.536621
 20
100.022346
 30
0.0
  0
VERTEX
  5
4A8
100
AcDbEntity
  8
0
100
AcDbVertex
100
AcDb2dVertex
 10
136.496231
 20
100.386162
 30
0.0
  0
VERTEX
  5
4A9
100
AcDbEntity
  8
0
100
AcDbVertex
100
AcDb2dVertex
 10
136.567444
 20
100.745239
 30
0.0
  0
VERTEX
  5
4AA
100
AcDbEntity
  8
0
100
AcDbVertex
100
AcDb2dVertex
 10
136.742294
 20
101.066925
 30
0.0
  0
VERTEX
  5
4AB
100
AcDbEntity
  8
0
100
AcDbVertex
100
AcDb2dVertex
 10
137.063049
 20
101.366463
 30
0.0
  0
VERTEX
  5
4AC
100
AcDbEntity
  8
0
100
AcDbVertex
100
AcDb2dVertex
 10
137.394302
 20
101.522972
 30
0.0
  0
SEQEND
  5
4AD
100
AcDbEntity
  8
0
  0
POLYLINE
  5
4AE
100
AcDbEntity
  8
0
 62
     7
100
AcDb2dPolyline
 66
     1
 10
0.0
 20
0.0
 30
0.0
 71
     6
  0
VERTEX
  5
4AF
100
AcDbEntity
  8
0
100
AcDbVertex
100
AcDb2dVertex
 10
151.411697
 20
89.997421
 30
0.0
  0
VERTEX
  5
4B0
100
AcDbEntity
  8
0
100
AcDbVertex
100
AcDb2dVertex
 10
151.473892
 20
89.618752
 30
0.0
  0
VERTEX
  5
4B1
100
AcDbEntity
  8
0
100
AcDbVertex
100
AcDb2dVertex
 10
151.651184
 20
89.27832
 30
0.0
  0
VERTEX
  5
4B2
100
AcDbEntity
  8
0
100
AcDbVertex
100
AcDb2dVertex
 10
151.923401
 20
89.007507
 30
0.0
  0
VERTEX
  5
4B3
100
AcDbEntity
  8
0
100
AcDbVertex
100
AcDb2dVertex
 10
152.263
 20
88.828011
 30
0.0
  0
VERTEX
  5
4B4
100
AcDbEntity
  8
0
100
AcDbVertex
100
AcDb2dVertex
 10
152.716675
 20
88.750038
 30
0.0
  0
SEQEND
  5
4B5
100
AcDbEntity
  8
0
  0
POLYLINE
  5
4B6
100
AcDbEntity
  8
0
 62
     7
100
AcDb2dPolyline
 66
     1
 10
0.0
 20
0.0
 30
0.0
 71
     6
  0
VERTEX
  5
4B7
100
AcDbEntity
  8
0
100
AcDbVertex
100
AcDb2dVertex
 10
152.716675
 20
88.750038
 30
0.0
  0
VERTEX
  5
4B8
100
AcDbEntity
  8
0
100
AcDbVertex
100
AcDb2dVertex
 10
153.155289
 20
88.822731
 30
0.0
  0
VERTEX
  5
4B9
100
AcDbEntity
  8
0
100
AcDbVertex
100
AcDb2dVertex
 10
153.545929
 20
89.03479
 30
0.0
  0
VERTEX
  5
4BA
100
AcDbEntity
  8
0
100
AcDbVertex
100
AcDb2dVertex
 10
153.800827
 20
89.304138
 30
0.0
  0
VERTEX
  5
4BB
100
AcDbEntity
  8
0
100
AcDbVertex
100
AcDb2dVertex
 10
153.965302
 20
89.636345
 30
0.0
  0
VERTEX
  5
4BC
100
AcDbEntity
  8
0
100
AcDbVertex
100
AcDb2dVertex
 10
154.021759
 20
90.00264
 30
0.0
  0
SEQEND
  5
4BD
100
AcDbEntity
  8
0
  0
POLYLINE
  5
4BE
100
AcDbEntity
  8
0
 62
     7
100
AcDb2dPolyline
 66
     1
 10
0.0
 20
0.0
 30
0.0
 71
     6
  0
VERTEX
  5
4BF
100
AcDbEntity
  8
0
100
AcDbVertex
100
AcDb2dVertex
 10
154.021759
 20
90.00264
 30
0.0
  0
VERTEX
  5
4C0
100
AcDbEntity
  8
0
100
AcDbVertex
100
AcDb2dVertex
 10
153.944839
 20
90.422821
 30
0.0
  0
VERTEX
  5
4C1
100
AcDbEntity
  8
0
100
AcDbVertex
100
AcDb2dVertex
 10
153.727509
 20
90.790726
 30
0.0
  0
VERTEX
  5
4C2
100
AcDbEntity
  8
0
100
AcDbVertex
100
AcDb2dVertex
 10
153.399689
 20
91.065193
 30
0.0
  0
VERTEX
  5
4C3
100
AcDbEntity
  8
0
100
AcDbVertex
100
AcDb2dVertex
 10
153.001038
 20
91.220009
 30
0.0
  0
VERTEX
  5
4C4
100
AcDbEntity
  8
0
100
AcDbVertex
100
AcDb2dVertex
 10
152.716782
 20
91.250031
 30
0.0
  0
SEQEND
  5
4C5
100
AcDbEntity
  8
0
  0
POLYLINE
  5
4C6
100
AcDbEntity
  8
0
 62
     7
100
AcDb2dPolyline
 66
     1
 10
0.0
 20
0.0
 30
0.0
 71
     6
  0
VERTEX
  5
4C7
100
AcDbEntity
  8
0
100
AcDbVertex
100
AcDb2dVertex
 10
152.716782
 20
91.250031
 30
0.0
  0
VERTEX
  5
4C8
100
AcDbEntity
  8
0
100
AcDbVertex
100
AcDb2dVertex
 10
152.307419
 20
91.186958
 30
0.0
  0
VERTEX
  5
4C9
100
AcDbEntity
  8
0
100
AcDbVertex
100
AcDb2dVertex
 10
151.936798
 20
91.002243
 30
0.0
  0
VERTEX
  5
4CA
100
AcDbEntity
  8
0
100
AcDbVertex
100
AcDb2dVertex
 10
151.643036
 20
90.710571
 30
0.0
  0
VERTEX
  5
4CB
100
AcDbEntity
  8
0
100
AcDbVertex
100
AcDb2dVertex
 10
151.460648
 20
90.33918
 30
0.0
  0
VERTEX
  5
4CC
100
AcDbEntity
  8
0
100
AcDbVertex
100
AcDb2dVertex
 10
151.411697
 20
89.997421
 30
0.0
  0
SEQEND
  5
4CD
100
AcDbEntity
  8
0
  0
ARC
  5
4CE
100
AcDbEntity
  8
0
 62
     7
100
AcDbCircle
 10
171.138214
 20
80.841553
 30
0.0
 40
1.324574
210
0.0
220
0.0
230
1.0
100
AcDbArc
 50
217.83494
 51
270.393505
  0
POLYLINE
  5
4CF
100
AcDbEntity
  8
0
 62
     7
100
AcDb2dPolyline
 66
     1
 10
0.0
 20
0.0
 30
0.0
 71
     8
  0
VERTEX
  5
4D0
100
AcDbEntity
  8
0
100
AcDbVertex
100
AcDb2dVertex
 10
171.147324
 20
79.516373
 30
0.0
  0
VERTEX
  5
4D1
100
AcDbEntity
  8
0
100
AcDbVertex
100
AcDb2dVertex
 10
171.581512
 20
79.587738
 30
0.0
  0
VERTEX
  5
4D2
100
AcDbEntity
  8
0
100
AcDbVertex
100
AcDb2dVertex
 10
171.969162
 20
79.795715
 30
0.0
  0
VERTEX
  5
4D3
100
AcDbEntity
  8
0
100
AcDbVertex
100
AcDb2dVertex
 10
172.264709
 20
80.121284
 30
0.0
  0
VERTEX
  5
4D4
100
AcDbEntity
  8
0
100
AcDbVertex
100
AcDb2dVertex
 10
172.411438
 20
80.457497
 30
0.0
  0
VERTEX
  5
4D5
100
AcDbEntity
  8
0
100
AcDbVertex
100
AcDb2dVertex
 10
172.450607
 20
80.822182
 30
0.0
  0
VERTEX
  5
4D6
100
AcDbEntity
  8
0
100
AcDbVertex
100
AcDb2dVertex
 10
172.377777
 20
81.181686
 30
0.0
  0
VERTEX
  5
4D7
100
AcDbEntity
  8
0
100
AcDbVertex
100
AcDb2dVertex
 10
172.201065
 20
81.503212
 30
0.0
  0
SEQEND
  5
4D8
100
AcDbEntity
  8
0
  0
ARC
  5
4D9
100
AcDbEntity
  8
0
 62
     7
100
AcDbCircle
 10
171.155518
 20
80.691223
 30
0.0
 40
1.32455
210
0.0
220
0.0
230
1.0
100
AcDbArc
 50
37.833511
 51
90.393053
  0
POLYLINE
  5
4DA
100
AcDbEntity
  8
0
 62
     7
100
AcDb2dPolyline
 66
     1
 10
0.0
 20
0.0
 30
0.0
 71
     8
  0
VERTEX
  5
4DB
100
AcDbEntity
  8
0
100
AcDbVertex
100
AcDb2dVertex
 10
171.146439
 20
82.016373
 30
0.0
  0
VERTEX
  5
4DC
100
AcDbEntity
  8
0
100
AcDbVertex
100
AcDb2dVertex
 10
170.752304
 20
81.95787
 30
0.0
  0
VERTEX
  5
4DD
100
AcDbEntity
  8
0
100
AcDbVertex
100
AcDb2dVertex
 10
170.3927
 20
81.786507
 30
0.0
  0
VERTEX
  5
4DE
100
AcDbEntity
  8
0
100
AcDbVertex
100
AcDb2dVertex
 10
170.101578
 20
81.514748
 30
0.0
  0
VERTEX
  5
4DF
100
AcDbEntity
  8
0
100
AcDbVertex
100
AcDb2dVertex
 10
169.910233
 20
81.165695
 30
0.0
  0
VERTEX
  5
4E0
100
AcDbEntity
  8
0
100
AcDbVertex
100
AcDb2dVertex
 10
169.841858
 20
80.773666
 30
0.0
  0
VERTEX
  5
4E1
100
AcDbEntity
  8
0
100
AcDbVertex
100
AcDb2dVertex
 10
169.905472
 20
80.380814
 30
0.0
  0
VERTEX
  5
4E2
100
AcDbEntity
  8
0
100
AcDbVertex
100
AcDb2dVertex
 10
170.092682
 20
80.029526
 30
0.0
  0
SEQEND
  5
4E3
100
AcDbEntity
  8
0
  0
ARC
  5
4E4
100
AcDbEntity
  8
0
 62
     7
100
AcDbCircle
 10
122.876266
 20
114.10318
 30
0.0
 40
1.357712
210
0.0
220
0.0
230
1.0
100
AcDbArc
 50
72.851433
 51
90.015466
  0
POLYLINE
  5
4E5
100
AcDbEntity
  8
0
 62
     7
100
AcDb2dPolyline
 66
     1
 10
0.0
 20
0.0
 30
0.0
 71
    10
  0
VERTEX
  5
4E6
100
AcDbEntity
  8
0
100
AcDbVertex
100
AcDb2dVertex
 10
122.8759
 20
115.460892
 30
0.0
  0
VERTEX
  5
4E7
100
AcDbEntity
  8
0
100
AcDbVertex
100
AcDb2dVertex
 10
122.441902
 20
115.389755
 30
0.0
  0
VERTEX
  5
4E8
100
AcDbEntity
  8
0
100
AcDbVertex
100
AcDb2dVertex
 10
122.054337
 20
115.182106
 30
0.0
  0
VERTEX
  5
4E9
100
AcDbEntity
  8
0
100
AcDbVertex
100
AcDb2dVertex
 10
121.758682
 20
114.856941
 30
0.0
  0
VERTEX
  5
4EA
100
AcDbEntity
  8
0
100
AcDbVertex
100
AcDb2dVertex
 10
121.611679
 20
114.521049
 30
0.0
  0
VERTEX
  5
4EB
100
AcDbEntity
  8
0
100
AcDbVertex
100
AcDb2dVertex
 10
121.572098
 20
114.156601
 30
0.0
  0
VERTEX
  5
4EC
100
AcDbEntity
  8
0
100
AcDbVertex
100
AcDb2dVertex
 10
121.644424
 20
113.797188
 30
0.0
  0
VERTEX
  5
4ED
100
AcDbEntity
  8
0
100
AcDbVertex
100
AcDb2dVertex
 10
121.820557
 20
113.475571
 30
0.0
  0
VERTEX
  5
4EE
100
AcDbEntity
  8
0
100
AcDbVertex
100
AcDb2dVertex
 10
122.142853
 20
113.176727
 30
0.0
  0
VERTEX
  5
4EF
100
AcDbEntity
  8
0
100
AcDbVertex
100
AcDb2dVertex
 10
122.47522
 20
113.021271
 30
0.0
  0
SEQEND
  5
4F0
100
AcDbEntity
  8
0
  0
ARC
  5
4F1
100
AcDbEntity
  8
0
 62
     7
100
AcDbCircle
 10
122.875534
 20
114.318619
 30
0.0
 40
1.357712
210
0.0
220
0.0
230
1.0
100
AcDbArc
 50
252.851435
 51
270.015468
  0
POLYLINE
  5
4F2
100
AcDbEntity
  8
0
 62
     7
100
AcDb2dPolyline
 66
     1
 10
0.0
 20
0.0
 30
0.0
 71
    10
  0
VERTEX
  5
4F3
100
AcDbEntity
  8
0
100
AcDbVertex
100
AcDb2dVertex
 10
122.8759
 20
112.960899
 30
0.0
  0
VERTEX
  5
4F4
100
AcDbEntity
  8
0
100
AcDbVertex
100
AcDb2dVertex
 10
123.309906
 20
113.032043
 30
0.0
  0
VERTEX
  5
4F5
100
AcDbEntity
  8
0
100
AcDbVertex
100
AcDb2dVertex
 10
123.697472
 20
113.239685
 30
0.0
  0
VERTEX
  5
4F6
100
AcDbEntity
  8
0
100
AcDbVertex
100
AcDb2dVertex
 10
123.993126
 20
113.56485
 30
0.0
  0
VERTEX
  5
4F7
100
AcDbEntity
  8
0
100
AcDbVertex
100
AcDb2dVertex
 10
124.140129
 20
113.900742
 30
0.0
  0
VERTEX
  5
4F8
100
AcDbEntity
  8
0
100
AcDbVertex
100
AcDb2dVertex
 10
124.17971
 20
114.265198
 30
0.0
  0
VERTEX
  5
4F9
100
AcDbEntity
  8
0
100
AcDbVertex
100
AcDb2dVertex
 10
124.107391
 20
114.624611
 30
0.0
  0
VERTEX
  5
4FA
100
AcDbEntity
  8
0
100
AcDbVertex
100
AcDb2dVertex
 10
123.931252
 20
114.946228
 30
0.0
  0
VERTEX
  5
4FB
100
AcDbEntity
  8
0
100
AcDbVertex
100
AcDb2dVertex
 10
123.608955
 20
115.245064
 30
0.0
  0
VERTEX
  5
4FC
100
AcDbEntity
  8
0
100
AcDbVertex
100
AcDb2dVertex
 10
123.276588
 20
115.40052
 30
0.0
  0
SEQEND
  5
4FD
100
AcDbEntity
  8
0
  0
POLYLINE
  5
4FE
100
AcDbEntity
  8
0
 62
     7
100
AcDb2dPolyline
 66
     1
 10
0.0
 20
0.0
 30
0.0
 71
     6
  0
VERTEX
  5
4FF
100
AcDbEntity
  8
0
100
AcDbVertex
100
AcDb2dVertex
 10
151.444397
 20
74.997452
 30
0.0
  0
VERTEX
  5
500
100
AcDbEntity
  8
0
100
AcDbVertex
100
AcDb2dVertex
 10
151.521317
 20
74.577278
 30
0.0
  0
VERTEX
  5
501
100
AcDbEntity
  8
0
100
AcDbVertex
100
AcDb2dVertex
 10
151.738663
 20
74.209373
 30
0.0
  0
VERTEX
  5
502
100
AcDbEntity
  8
0
100
AcDbVertex
100
AcDb2dVertex
 10
152.066467
 20
73.934906
 30
0.0
  0
VERTEX
  5
503
100
AcDbEntity
  8
0
100
AcDbVertex
100
AcDb2dVertex
 10
152.465134
 20
73.78009
 30
0.0
  0
VERTEX
  5
504
100
AcDbEntity
  8
0
100
AcDbVertex
100
AcDb2dVertex
 10
152.749374
 20
73.750069
 30
0.0
  0
SEQEND
  5
505
100
AcDbEntity
  8
0
  0
POLYLINE
  5
506
100
AcDbEntity
  8
0
 62
     7
100
AcDb2dPolyline
 66
     1
 10
0.0
 20
0.0
 30
0.0
 71
     6
  0
VERTEX
  5
507
100
AcDbEntity
  8
0
100
AcDbVertex
100
AcDb2dVertex
 10
152.749374
 20
73.750069
 30
0.0
  0
VERTEX
  5
508
100
AcDbEntity
  8
0
100
AcDbVertex
100
AcDb2dVertex
 10
153.158752
 20
73.813141
 30
0.0
  0
VERTEX
  5
509
100
AcDbEntity
  8
0
100
AcDbVertex
100
AcDb2dVertex
 10
153.529373
 20
73.997856
 30
0.0
  0
VERTEX
  5
50A
100
AcDbEntity
  8
0
100
AcDbVertex
100
AcDb2dVertex
 10
153.823135
 20
74.289528
 30
0.0
  0
VERTEX
  5
50B
100
AcDbEntity
  8
0
100
AcDbVertex
100
AcDb2dVertex
 10
154.005524
 20
74.660919
 30
0.0
  0
VERTEX
  5
50C
100
AcDbEntity
  8
0
100
AcDbVertex
100
AcDb2dVertex
 10
154.054474
 20
75.002678
 30
0.0
  0
SEQEND
  5
50D
100
AcDbEntity
  8
0
  0
POLYLINE
  5
50E
100
AcDbEntity
  8
0
 62
     7
100
AcDb2dPolyline
 66
     1
 10
0.0
 20
0.0
 30
0.0
 71
     6
  0
VERTEX
  5
50F
100
AcDbEntity
  8
0
100
AcDbVertex
100
AcDb2dVertex
 10
154.054474
 20
75.002678
 30
0.0
  0
VERTEX
  5
510
100
AcDbEntity
  8
0
100
AcDbVertex
100
AcDb2dVertex
 10
153.977554
 20
75.422852
 30
0.0
  0
VERTEX
  5
511
100
AcDbEntity
  8
0
100
AcDbVertex
100
AcDb2dVertex
 10
153.760208
 20
75.790756
 30
0.0
  0
VERTEX
  5
512
100
AcDbEntity
  8
0
100
AcDbVertex
100
AcDb2dVertex
 10
153.432404
 20
76.065224
 30
0.0
  0
VERTEX
  5
513
100
AcDbEntity
  8
0
100
AcDbVertex
100
AcDb2dVertex
 10
153.033752
 20
76.220039
 30
0.0
  0
VERTEX
  5
514
100
AcDbEntity
  8
0
100
AcDbVertex
100
AcDb2dVertex
 10
152.749496
 20
76.250061
 30
0.0
  0
SEQEND
  5
515
100
AcDbEntity
  8
0
  0
POLYLINE
  5
516
100
AcDbEntity
  8
0
 62
     7
100
AcDb2dPolyline
 66
     1
 10
0.0
 20
0.0
 30
0.0
 71
     6
  0
VERTEX
  5
517
100
AcDbEntity
  8
0
100
AcDbVertex
100
AcDb2dVertex
 10
152.749496
 20
76.250061
 30
0.0
  0
VERTEX
  5
518
100
AcDbEntity
  8
0
100
AcDbVertex
100
AcDb2dVertex
 10
152.340118
 20
76.186996
 30
0.0
  0
VERTEX
  5
519
100
AcDbEntity
  8
0
100
AcDbVertex
100
AcDb2dVertex
 10
151.969498
 20
76.002274
 30
0.0
  0
VERTEX
  5
51A
100
AcDbEntity
  8
0
100
AcDbVertex
100
AcDb2dVertex
 10
151.675735
 20
75.710602
 30
0.0
  0
VERTEX
  5
51B
100
AcDbEntity
  8
0
100
AcDbVertex
100
AcDb2dVertex
 10
151.493347
 20
75.339218
 30
0.0
  0
VERTEX
  5
51C
100
AcDbEntity
  8
0
100
AcDbVertex
100
AcDb2dVertex
 10
151.444397
 20
74.997452
 30
0.0
  0
SEQEND
  5
51D
100
AcDbEntity
  8
0
  0
ARC
  5
51E
100
AcDbEntity
  8
0
 62
     7
100
AcDbCircle
 10
143.461243
 20
117.041634
 30
0.0
 40
1.324574
210
0.0
220
0.0
230
1.0
100
AcDbArc
 50
37.834938
 51
90.39351
  0
POLYLINE
  5
51F
100
AcDbEntity
  8
0
 62
     7
100
AcDb2dPolyline
 66
     1
 10
0.0
 20
0.0
 30
0.0
 71
     8
  0
VERTEX
  5
520
100
AcDbEntity
  8
0
100
AcDbVertex
100
AcDb2dVertex
 10
143.452148
 20
118.366814
 30
0.0
  0
VERTEX
  5
521
100
AcDbEntity
  8
0
100
AcDbVertex
100
AcDb2dVertex
 10
143.017944
 20
118.295448
 30
0.0
  0
VERTEX
  5
522
100
AcDbEntity
  8
0
100
AcDbVertex
100
AcDb2dVertex
 10
142.63031
 20
118.087471
 30
0.0
  0
VERTEX
  5
523
100
AcDbEntity
  8
0
100
AcDbVertex
100
AcDb2dVertex
 10
142.334763
 20
117.761902
 30
0.0
  0
VERTEX
  5
524
100
AcDbEntity
  8
0
100
AcDbVertex
100
AcDb2dVertex
 10
142.188019
 20
117.42569
 30
0.0
  0
VERTEX
  5
525
100
AcDbEntity
  8
0
100
AcDbVertex
100
AcDb2dVertex
 10
142.148849
 20
117.061005
 30
0.0
  0
VERTEX
  5
526
100
AcDbEntity
  8
0
100
AcDbVertex
100
AcDb2dVertex
 10
142.221695
 20
116.7015
 30
0.0
  0
VERTEX
  5
527
100
AcDbEntity
  8
0
100
AcDbVertex
100
AcDb2dVertex
 10
142.398392
 20
116.379974
 30
0.0
  0
SEQEND
  5
528
100
AcDbEntity
  8
0
  0
ARC
  5
529
100
AcDbEntity
  8
0
 62
     7
100
AcDbCircle
 10
143.443924
 20
117.191994
 30
0.0
 40
1.324574
210
0.0
220
0.0
230
1.0
100
AcDbArc
 50
217.83494
 51
270.393505
  0
POLYLINE
  5
52A
100
AcDbEntity
  8
0
 62
     7
100
AcDb2dPolyline
 66
     1
 10
0.0
 20
0.0
 30
0.0
 71
     8
  0
VERTEX
  5
52B
100
AcDbEntity
  8
0
100
AcDbVertex
100
AcDb2dVertex
 10
143.453033
 20
115.866814
 30
0.0
  0
VERTEX
  5
52C
100
AcDbEntity
  8
0
100
AcDbVertex
100
AcDb2dVertex
 10
143.887222
 20
115.938179
 30
0.0
  0
VERTEX
  5
52D
100
AcDbEntity
  8
0
100
AcDbVertex
100
AcDb2dVertex
 10
144.274872
 20
116.146156
 30
0.0
  0
VERTEX
  5
52E
100
AcDbEntity
  8
0
100
AcDbVertex
100
AcDb2dVertex
 10
144.570419
 20
116.471725
 30
0.0
  0
VERTEX
  5
52F
100
AcDbEntity
  8
0
100
AcDbVertex
100
AcDb2dVertex
 10
144.717148
 20
116.807938
 30
0.0
  0
VERTEX
  5
530
100
AcDbEntity
  8
0
100
AcDbVertex
100
AcDb2dVertex
 10
144.756332
 20
117.172623
 30
0.0
  0
VERTEX
  5
531
100
AcDbEntity
  8
0
100
AcDbVertex
100
AcDb2dVertex
 10
144.683487
 20
117.532127
 30
0.0
  0
VERTEX
  5
532
100
AcDbEntity
  8
0
100
AcDbVertex
100
AcDb2dVertex
 10
144.50679
 20
117.853653
 30
0.0
  0
SEQEND
  5
533
100
AcDbEntity
  8
0
  0
ARC
  5
534
100
AcDbEntity
  8
0
 62
     7
100
AcDbCircle
 10
167.587708
 20
100.502274
 30
0.0
 40
1.357712
210
0.0
220
0.0
230
1.0
100
AcDbArc
 50
252.851435
 51
270.015468
  0
POLYLINE
  5
535
100
AcDbEntity
  8
0
 62
     7
100
AcDb2dPolyline
 66
     1
 10
0.0
 20
0.0
 30
0.0
 71
    10
  0
VERTEX
  5
536
100
AcDbEntity
  8
0
100
AcDbVertex
100
AcDb2dVertex
 10
167.588074
 20
99.144554
 30
0.0
  0
VERTEX
  5
537
100
AcDbEntity
  8
0
100
AcDbVertex
100
AcDb2dVertex
 10
168.022079
 20
99.215698
 30
0.0
  0
VERTEX
  5
538
100
AcDbEntity
  8
0
100
AcDbVertex
100
AcDb2dVertex
 10
168.409637
 20
99.42334
 30
0.0
  0
VERTEX
  5
539
100
AcDbEntity
  8
0
100
AcDbVertex
100
AcDb2dVertex
 10
168.705292
 20
99.748505
 30
0.0
  0
VERTEX
  5
53A
100
AcDbEntity
  8
0
100
AcDbVertex
100
AcDb2dVertex
 10
168.852295
 20
100.084396
 30
0.0
  0
VERTEX
  5
53B
100
AcDbEntity
  8
0
100
AcDbVertex
100
AcDb2dVertex
 10
168.891876
 20
100.448853
 30
0.0
  0
VERTEX
  5
53C
100
AcDbEntity
  8
0
100
AcDbVertex
100
AcDb2dVertex
 10
168.819565
 20
100.808266
 30
0.0
  0
VERTEX
  5
53D
100
AcDbEntity
  8
0
100
AcDbVertex
100
AcDb2dVertex
 10
168.643417
 20
101.129875
 30
0.0
  0
VERTEX
  5
53E
100
AcDbEntity
  8
0
100
AcDbVertex
100
AcDb2dVertex
 10
168.321121
 20
101.428719
 30
0.0
  0
VERTEX
  5
53F
100
AcDbEntity
  8
0
100
AcDbVertex
100
AcDb2dVertex
 10
167.98877
 20
101.584175
 30
0.0
  0
SEQEND
  5
540
100
AcDbEntity
  8
0
  0
ARC
  5
541
100
AcDbEntity
  8
0
 62
     7
100
AcDbCircle
 10
167.58844
 20
100.286827
 30
0.0
 40
1.357712
210
0.0
220
0.0
230
1.0
100
AcDbArc
 50
72.851433
 51
90.015466
  0
POLYLINE
  5
542
100
AcDbEntity
  8
0
 62
     7
100
AcDb2dPolyline
 66
     1
 10
0.0
 20
0.0
 30
0.0
 71
    10
  0
VERTEX
  5
543
100
AcDbEntity
  8
0
100
AcDbVertex
100
AcDb2dVertex
 10
167.588074
 20
101.644547
 30
0.0
  0
VERTEX
  5
544
100
AcDbEntity
  8
0
100
AcDbVertex
100
AcDb2dVertex
 10
167.154083
 20
101.573402
 30
0.0
  0
VERTEX
  5
545
100
AcDbEntity
  8
0
100
AcDbVertex
100
AcDb2dVertex
 10
166.76651
 20
101.365761
 30
0.0
  0
VERTEX
  5
546
100
AcDbEntity
  8
0
100
AcDbVertex
100
AcDb2dVertex
 10
166.470856
 20
101.040596
 30
0.0
  0
VERTEX
  5
547
100
AcDbEntity
  8
0
100
AcDbVertex
100
AcDb2dVertex
 10
166.323853
 20
100.704704
 30
0.0
  0
VERTEX
  5
548
100
AcDbEntity
  8
0
100
AcDbVertex
100
AcDb2dVertex
 10
166.284271
 20
100.340248
 30
0.0
  0
VERTEX
  5
549
100
AcDbEntity
  8
0
100
AcDbVertex
100
AcDb2dVertex
 10
166.356598
 20
99.980835
 30
0.0
  0
VERTEX
  5
54A
100
AcDbEntity
  8
0
100
AcDbVertex
100
AcDb2dVertex
 10
166.53273
 20
99.659225
 30
0.0
  0
VERTEX
  5
54B
100
AcDbEntity
  8
0
100
AcDbVertex
100
AcDb2dVertex
 10
166.855026
 20
99.360382
 30
0.0
  0
VERTEX
  5
54C
100
AcDbEntity
  8
0
100
AcDbVertex
100
AcDb2dVertex
 10
167.187393
 20
99.204926
 30
0.0
  0
SEQEND
  5
54D
100
AcDbEntity
  8
0
  0
ARC
  5
54E
100
AcDbEntity
  8
0
 62
     7
100
AcDbCircle
 10
182.49176
 20
95.89682
 30
0.0
 40
1.357712
210
0.0
220
0.0
230
1.0
100
AcDbArc
 50
252.851435
 51
270.015468
  0
POLYLINE
  5
54F
100
AcDbEntity
  8
0
 62
     7
100
AcDb2dPolyline
 66
     1
 10
0.0
 20
0.0
 30
0.0
 71
    10
  0
VERTEX
  5
550
100
AcDbEntity
  8
0
100
AcDbVertex
100
AcDb2dVertex
 10
182.492126
 20
94.539108
 30
0.0
  0
VERTEX
  5
551
100
AcDbEntity
  8
0
100
AcDbVertex
100
AcDb2dVertex
 10
182.887192
 20
94.597755
 30
0.0
  0
VERTEX
  5
552
100
AcDbEntity
  8
0
100
AcDbVertex
100
AcDb2dVertex
 10
183.247543
 20
94.769806
 30
0.0
  0
VERTEX
  5
553
100
AcDbEntity
  8
0
100
AcDbVertex
100
AcDb2dVertex
 10
183.53894
 20
95.042648
 30
0.0
  0
VERTEX
  5
554
100
AcDbEntity
  8
0
100
AcDbVertex
100
AcDb2dVertex
 10
183.729904
 20
95.39299
 30
0.0
  0
VERTEX
  5
555
100
AcDbEntity
  8
0
100
AcDbVertex
100
AcDb2dVertex
 10
183.797165
 20
95.786163
 30
0.0
  0
VERTEX
  5
556
100
AcDbEntity
  8
0
100
AcDbVertex
100
AcDb2dVertex
 10
183.731812
 20
96.179688
 30
0.0
  0
VERTEX
  5
557
100
AcDbEntity
  8
0
100
AcDbVertex
100
AcDb2dVertex
 10
183.542511
 20
96.53093
 30
0.0
  0
VERTEX
  5
558
100
AcDbEntity
  8
0
100
AcDbVertex
100
AcDb2dVertex
 10
183.25238
 20
96.805092
 30
0.0
  0
VERTEX
  5
559
100
AcDbEntity
  8
0
100
AcDbVertex
100
AcDb2dVertex
 10
182.892822
 20
96.978729
 30
0.0
  0
SEQEND
  5
55A
100
AcDbEntity
  8
0
  0
ARC
  5
55B
100
AcDbEntity
  8
0
 62
     7
100
AcDbCircle
 10
182.492493
 20
95.681381
 30
0.0
 40
1.357712
210
0.0
220
0.0
230
1.0
100
AcDbArc
 50
72.851433
 51
90.015466
  0
POLYLINE
  5
55C
100
AcDbEntity
  8
0
 62
     7
100
AcDb2dPolyline
 66
     1
 10
0.0
 20
0.0
 30
0.0
 71
    10
  0
VERTEX
  5
55D
100
AcDbEntity
  8
0
100
AcDbVertex
100
AcDb2dVertex
 10
182.492126
 20
97.039101
 30
0.0
  0
VERTEX
  5
55E
100
AcDbEntity
  8
0
100
AcDbVertex
100
AcDb2dVertex
 10
182.058136
 20
96.967957
 30
0.0
  0
VERTEX
  5
55F
100
AcDbEntity
  8
0
100
AcDbVertex
100
AcDb2dVertex
 10
181.670563
 20
96.760315
 30
0.0
  0
VERTEX
  5
560
100
AcDbEntity
  8
0
100
AcDbVertex
100
AcDb2dVertex
 10
181.374908
 20
96.43515
 30
0.0
  0
VERTEX
  5
561
100
AcDbEntity
  8
0
100
AcDbVertex
100
AcDb2dVertex
 10
181.227905
 20
96.099258
 30
0.0
  0
VERTEX
  5
562
100
AcDbEntity
  8
0
100
AcDbVertex
100
AcDb2dVertex
 10
181.188324
 20
95.734802
 30
0.0
  0
VERTEX
  5
563
100
AcDbEntity
  8
0
100
AcDbVertex
100
AcDb2dVertex
 10
181.260651
 20
95.375389
 30
0.0
  0
VERTEX
  5
564
100
AcDbEntity
  8
0
100
AcDbVertex
100
AcDb2dVertex
 10
181.436783
 20
95.053772
 30
0.0
  0
VERTEX
  5
565
100
AcDbEntity
  8
0
100
AcDbVertex
100
AcDb2dVertex
 10
181.759079
 20
94.754936
 30
0.0
  0
VERTEX
  5
566
100
AcDbEntity
  8
0
100
AcDbVertex
100
AcDb2dVertex
 10
182.091446
 20
94.59948
 30
0.0
  0
SEQEND
  5
567
100
AcDbEntity
  8
0
  0
POLYLINE
  5
568
100
AcDbEntity
  8
0
 62
     7
100
AcDb2dPolyline
 66
     1
 10
0.0
 20
0.0
 30
0.0
 71
     6
  0
VERTEX
  5
569
100
AcDbEntity
  8
0
100
AcDbVertex
100
AcDb2dVertex
 10
153.923645
 20
135.002548
 30
0.0
  0
VERTEX
  5
56A
100
AcDbEntity
  8
0
100
AcDbVertex
100
AcDb2dVertex
 10
153.86145
 20
135.38121
 30
0.0
  0
VERTEX
  5
56B
100
AcDbEntity
  8
0
100
AcDbVertex
100
AcDb2dVertex
 10
153.684143
 20
135.721649
 30
0.0
  0
VERTEX
  5
56C
100
AcDbEntity
  8
0
100
AcDbVertex
100
AcDb2dVertex
 10
153.411926
 20
135.992462
 30
0.0
  0
VERTEX
  5
56D
100
AcDbEntity
  8
0
100
AcDbVertex
100
AcDb2dVertex
 10
153.072327
 20
136.171951
 30
0.0
  0
VERTEX
  5
56E
100
AcDbEntity
  8
0
100
AcDbVertex
100
AcDb2dVertex
 10
152.618668
 20
136.249939
 30
0.0
  0
SEQEND
  5
56F
100
AcDbEntity
  8
0
  0
POLYLINE
  5
570
100
AcDbEntity
  8
0
 62
     7
100
AcDb2dPolyline
 66
     1
 10
0.0
 20
0.0
 30
0.0
 71
     6
  0
VERTEX
  5
571
100
AcDbEntity
  8
0
100
AcDbVertex
100
AcDb2dVertex
 10
152.618668
 20
136.249939
 30
0.0
  0
VERTEX
  5
572
100
AcDbEntity
  8
0
100
AcDbVertex
100
AcDb2dVertex
 10
152.180038
 20
136.177231
 30
0.0
  0
VERTEX
  5
573
100
AcDbEntity
  8
0
100
AcDbVertex
100
AcDb2dVertex
 10
151.789398
 20
135.965179
 30
0.0
  0
VERTEX
  5
574
100
AcDbEntity
  8
0
100
AcDbVertex
100
AcDb2dVertex
 10
151.5345
 20
135.695831
 30
0.0
  0
VERTEX
  5
575
100
AcDbEntity
  8
0
100
AcDbVertex
100
AcDb2dVertex
 10
151.370026
 20
135.363617
 30
0.0
  0
VERTEX
  5
576
100
AcDbEntity
  8
0
100
AcDbVertex
100
AcDb2dVertex
 10
151.313568
 20
134.99733
 30
0.0
  0
SEQEND
  5
577
100
AcDbEntity
  8
0
  0
POLYLINE
  5
578
100
AcDbEntity
  8
0
 62
     7
100
AcDb2dPolyline
 66
     1
 10
0.0
 20
0.0
 30
0.0
 71
     6
  0
VERTEX
  5
579
100
AcDbEntity
  8
0
100
AcDbVertex
100
AcDb2dVertex
 10
151.313568
 20
134.99733
 30
0.0
  0
VERTEX
  5
57A
100
AcDbEntity
  8
0
100
AcDbVertex
100
AcDb2dVertex
 10
151.390488
 20
134.577148
 30
0.0
  0
VERTEX
  5
57B
100
AcDbEntity
  8
0
100
AcDbVertex
100
AcDb2dVertex
 10
151.607819
 20
134.209244
 30
0.0
  0
VERTEX
  5
57C
100
AcDbEntity
  8
0
100
AcDbVertex
100
AcDb2dVertex
 10
151.935638
 20
133.934784
 30
0.0
  0
VERTEX
  5
57D
100
AcDbEntity
  8
0
100
AcDbVertex
100
AcDb2dVertex
 10
152.33429
 20
133.779953
 30
0.0
  0
VERTEX
  5
57E
100
AcDbEntity
  8
0
100
AcDbVertex
100
AcDb2dVertex
 10
152.618546
 20
133.749939
 30
0.0
  0
SEQEND
  5
57F
100
AcDbEntity
  8
0
  0
POLYLINE
  5
580
100
AcDbEntity
  8
0
 62
     7
100
AcDb2dPolyline
 66
     1
 10
0.0
 20
0.0
 30
0.0
 71
     6
  0
VERTEX
  5
581
100
AcDbEntity
  8
0
100
AcDbVertex
100
AcDb2dVertex
 10
152.618546
 20
133.749939
 30
0.0
  0
VERTEX
  5
582
100
AcDbEntity
  8
0
100
AcDbVertex
100
AcDb2dVertex
 10
153.027908
 20
133.813004
 30
0.0
  0
VERTEX
  5
583
100
AcDbEntity
  8
0
100
AcDbVertex
100
AcDb2dVertex
 10
153.398529
 20
133.997726
 30
0.0
  0
VERTEX
  5
584
100
AcDbEntity
  8
0
100
AcDbVertex
100
AcDb2dVertex
 10
153.692291
 20
134.289398
 30
0.0
  0
VERTEX
  5
585
100
AcDbEntity
  8
0
100
AcDbVertex
100
AcDb2dVertex
 10
153.87468
 20
134.660782
 30
0.0
  0
VERTEX
  5
586
100
AcDbEntity
  8
0
100
AcDbVertex
100
AcDb2dVertex
 10
153.923645
 20
135.002548
 30
0.0
  0
SEQEND
  5
587
100
AcDbEntity
  8
0
  0
ARC
  5
588
100
AcDbEntity
  8
0
 62
     7
100
AcDbCircle
 10
134.229828
 20
129.158447
 30
0.0
 40
1.324574
210
0.0
220
0.0
230
1.0
100
AcDbArc
 50
37.834938
 51
90.39351
  0
POLYLINE
  5
589
100
AcDbEntity
  8
0
 62
     7
100
AcDb2dPolyline
 66
     1
 10
0.0
 20
0.0
 30
0.0
 71
     8
  0
VERTEX
  5
58A
100
AcDbEntity
  8
0
100
AcDbVertex
100
AcDb2dVertex
 10
134.220718
 20
130.483627
 30
0.0
  0
VERTEX
  5
58B
100
AcDbEntity
  8
0
100
AcDbVertex
100
AcDb2dVertex
 10
133.78653
 20
130.412262
 30
0.0
  0
VERTEX
  5
58C
100
AcDbEntity
  8
0
100
AcDbVertex
100
AcDb2dVertex
 10
133.39888
 20
130.204285
 30
0.0
  0
VERTEX
  5
58D
100
AcDbEntity
  8
0
100
AcDbVertex
100
AcDb2dVertex
 10
133.103333
 20
129.878708
 30
0.0
  0
VERTEX
  5
58E
100
AcDbEntity
  8
0
100
AcDbVertex
100
AcDb2dVertex
 10
132.956604
 20
129.542496
 30
0.0
  0
VERTEX
  5
58F
100
AcDbEntity
  8
0
100
AcDbVertex
100
AcDb2dVertex
 10
132.917419
 20
129.177811
 30
0.0
  0
VERTEX
  5
590
100
AcDbEntity
  8
0
100
AcDbVertex
100
AcDb2dVertex
 10
132.990265
 20
128.818314
 30
0.0
  0
VERTEX
  5
591
100
AcDbEntity
  8
0
100
AcDbVertex
100
AcDb2dVertex
 10
133.166962
 20
128.49678
 30
0.0
  0
SEQEND
  5
592
100
AcDbEntity
  8
0
  0
ARC
  5
593
100
AcDbEntity
  8
0
 62
     7
100
AcDbCircle
 10
134.212494
 20
129.308807
 30
0.0
 40
1.324574
210
0.0
220
0.0
230
1.0
100
AcDbArc
 50
217.83494
 51
270.393505
  0
POLYLINE
  5
594
100
AcDbEntity
  8
0
 62
     7
100
AcDb2dPolyline
 66
     1
 10
0.0
 20
0.0
 30
0.0
 71
     8
  0
VERTEX
  5
595
100
AcDbEntity
  8
0
100
AcDbVertex
100
AcDb2dVertex
 10
134.221603
 20
127.983627
 30
0.0
  0
VERTEX
  5
596
100
AcDbEntity
  8
0
100
AcDbVertex
100
AcDb2dVertex
 10
134.655792
 20
128.054993
 30
0.0
  0
VERTEX
  5
597
100
AcDbEntity
  8
0
100
AcDbVertex
100
AcDb2dVertex
 10
135.043442
 20
128.26297
 30
0.0
  0
VERTEX
  5
598
100
AcDbEntity
  8
0
100
AcDbVertex
100
AcDb2dVertex
 10
135.338989
 20
128.588547
 30
0.0
  0
VERTEX
  5
599
100
AcDbEntity
  8
0
100
AcDbVertex
100
AcDb2dVertex
 10
135.485718
 20
128.924759
 30
0.0
  0
VERTEX
  5
59A
100
AcDbEntity
  8
0
100
AcDbVertex
100
AcDb2dVertex
 10
135.524902
 20
129.289444
 30
0.0
  0
VERTEX
  5
59B
100
AcDbEntity
  8
0
100
AcDbVertex
100
AcDb2dVertex
 10
135.452057
 20
129.648941
 30
0.0
  0
VERTEX
  5
59C
100
AcDbEntity
  8
0
100
AcDbVertex
100
AcDb2dVertex
 10
135.27536
 20
129.970474
 30
0.0
  0
SEQEND
  5
59D
100
AcDbEntity
  8
0
  0
ELLIPSE
  5
59E
100
AcDbEntity
  8
0
 62
     7
100
AcDbEllipse
 10
137.357193
 20
89.999725
 30
0.0
 11
0.5062103271484375
 21
-1.1555252075195313
 31
0.0
210
0.0
220
0.0
230
1.0
 40
0.940132
 41
4.32354736328125
 42
5.8924860954284668
  0
POLYLINE
  5
59F
100
AcDbEntity
  8
0
 62
     7
100
AcDb2dPolyline
 66
     1
 10
0.0
 20
0.0
 30
0.0
 71
     6
  0
VERTEX
  5
5A0
100
AcDbEntity
  8
0
100
AcDbVertex
100
AcDb2dVertex
 10
137.303391
 20
91.250031
 30
0.0
  0
VERTEX
  5
5A1
100
AcDbEntity
  8
0
100
AcDbVertex
100
AcDb2dVertex
 10
136.919403
 20
91.182991
 30
0.0
  0
VERTEX
  5
5A2
100
AcDbEntity
  8
0
100
AcDbVertex
100
AcDb2dVertex
 10
136.597168
 20
91.001213
 30
0.0
  0
VERTEX
  5
5A3
100
AcDbEntity
  8
0
100
AcDbVertex
100
AcDb2dVertex
 10
136.346115
 20
90.718002
 30
0.0
  0
VERTEX
  5
5A4
100
AcDbEntity
  8
0
100
AcDbVertex
100
AcDb2dVertex
 10
136.193024
 20
90.351471
 30
0.0
  0
VERTEX
  5
5A5
100
AcDbEntity
  8
0
100
AcDbVertex
100
AcDb2dVertex
 10
136.160034
 20
89.997421
 30
0.0
  0
SEQEND
  5
5A6
100
AcDbEntity
  8
0
  0
POLYLINE
  5
5A7
100
AcDbEntity
  8
0
 62
     7
100
AcDb2dPolyline
 66
     1
 10
0.0
 20
0.0
 30
0.0
 71
    10
  0
VERTEX
  5
5A8
100
AcDbEntity
  8
0
100
AcDbVertex
100
AcDb2dVertex
 10
123.300049
 20
101.522972
 30
0.0
  0
VERTEX
  5
5A9
100
AcDbEntity
  8
0
100
AcDbVertex
100
AcDb2dVertex
 10
122.962593
 20
101.32756
 30
0.0
  0
VERTEX
  5
5AA
100
AcDbEntity
  8
0
100
AcDbVertex
100
AcDb2dVertex
 10
122.699631
 20
101.011147
 30
0.0
  0
VERTEX
  5
5AB
100
AcDbEntity
  8
0
100
AcDbVertex
100
AcDb2dVertex
 10
122.551102
 20
100.610344
 30
0.0
  0
VERTEX
  5
5AC
100
AcDbEntity
  8
0
100
AcDbVertex
100
AcDb2dVertex
 10
122.541176
 20
100.154099
 30
0.0
  0
VERTEX
  5
5AD
100
AcDbEntity
  8
0
100
AcDbVertex
100
AcDb2dVertex
 10
122.675171
 20
99.735382
 30
0.0
  0
VERTEX
  5
5AE
100
AcDbEntity
  8
0
100
AcDbVertex
100
AcDb2dVertex
 10
122.898048
 20
99.426117
 30
0.0
  0
VERTEX
  5
5AF
100
AcDbEntity
  8
0
100
AcDbVertex
100
AcDb2dVertex
 10
123.227844
 20
99.190125
 30
0.0
  0
VERTEX
  5
5B0
100
AcDbEntity
  8
0
100
AcDbVertex
100
AcDb2dVertex
 10
123.601608
 20
99.088615
 30
0.0
  0
VERTEX
  5
5B1
100
AcDbEntity
  8
0
100
AcDbVertex
100
AcDb2dVertex
 10
123.689209
 20
99.084961
 30
0.0
  0
SEQEND
  5
5B2
100
AcDbEntity
  8
0
  0
ARC
  5
5B3
100
AcDbEntity
  8
0
 62
     7
100
AcDbCircle
 10
123.655884
 20
100.532959
 30
0.0
 40
1.052011
210
0.0
220
0.0
230
1.0
100
AcDbArc
 50
90.014858
 51
109.769555
  0
ELLIPSE
  5
5B4
100
AcDbEntity
  8
0
 62
     7
100
AcDbEllipse
 10
111.014145
 20
95.669769
 30
0.0
 11
0.1445465087890625
 21
-1.2438125610351562
 31
0.0
210
0.0
220
0.0
230
1.0
 40
0.869842
 41
3.3570706844329834
 42
4.5854225158691406
  0
ELLIPSE
  5
5B5
100
AcDbEntity
  8
0
 62
     7
100
AcDbEllipse
 10
111.014053
 20
95.670105
 30
0.0
 11
0.1434326171875
 21
-1.2439498901367187
 31
0.0
210
0.0
220
0.0
230
1.0
 40
0.869793
 41
5.1280074119567871
 42
6.1831507682800293
  0
ARC
  5
5B6
100
AcDbEntity
  8
0
 62
     7
100
AcDbCircle
 10
110.979385
 20
95.968979
 30
0.0
 40
0.950949
210
0.0
220
0.0
230
1.0
100
AcDbArc
 50
90.003069
 51
110.805182
  0
POLYLINE
  5
5B7
100
AcDbEntity
  8
0
 62
     7
100
AcDb2dPolyline
 66
     1
 10
0.0
 20
0.0
 30
0.0
 71
     8
  0
VERTEX
  5
5B8
100
AcDbEntity
  8
0
100
AcDbVertex
100
AcDb2dVertex
 10
120.51239
 20
81.425331
 30
0.0
  0
VERTEX
  5
5B9
100
AcDbEntity
  8
0
100
AcDbVertex
100
AcDb2dVertex
 10
120.378204
 20
81.079109
 30
0.0
  0
VERTEX
  5
5BA
100
AcDbEntity
  8
0
100
AcDbVertex
100
AcDb2dVertex
 10
120.356262
 20
80.634888
 30
0.0
  0
VERTEX
  5
5BB
100
AcDbEntity
  8
0
100
AcDbVertex
100
AcDb2dVertex
 10
120.477386
 20
80.201897
 30
0.0
  0
VERTEX
  5
5BC
100
AcDbEntity
  8
0
100
AcDbVertex
100
AcDb2dVertex
 10
120.723831
 20
79.832588
 30
0.0
  0
VERTEX
  5
5BD
100
AcDbEntity
  8
0
100
AcDbVertex
100
AcDb2dVertex
 10
121.06456
 20
79.571014
 30
0.0
  0
VERTEX
  5
5BE
100
AcDbEntity
  8
0
100
AcDbVertex
100
AcDb2dVertex
 10
121.400238
 20
79.45723
 30
0.0
  0
VERTEX
  5
5BF
100
AcDbEntity
  8
0
100
AcDbVertex
100
AcDb2dVertex
 10
121.573326
 20
79.442711
 30
0.0
  0
SEQEND
  5
5C0
100
AcDbEntity
  8
0
  0
ELLIPSE
  5
5C1
100
AcDbEntity
  8
0
 62
     7
100
AcDbEllipse
 10
121.482452
 20
80.693008
 30
0.0
 11
0.429718017578125
 21
-1.1907958984375
 31
0.0
210
0.0
220
0.0
230
1.0
 40
0.882389
 41
2.8330469131469727
 42
3.7780094146728516
  0
ARC
  5
5C2
100
AcDbEntity
  8
0
 62
     7
100
AcDbCircle
 10
155.367508
 20
80.889755
 30
0.0
 40
1.374295
210
0.0
220
0.0
230
1.0
100
AcDbArc
 50
218.732727
 51
269.378471
  0
POLYLINE
  5
5C3
100
AcDbEntity
  8
0
 62
     7
100
AcDb2dPolyline
 66
     1
 10
0.0
 20
0.0
 30
0.0
 71
     8
  0
VERTEX
  5
5C4
100
AcDbEntity
  8
0
100
AcDbVertex
100
AcDb2dVertex
 10
155.171402
 20
82.016373
 30
0.0
  0
VERTEX
  5
5C5
100
AcDbEntity
  8
0
100
AcDbVertex
100
AcDb2dVertex
 10
154.775391
 20
81.951698
 30
0.0
  0
VERTEX
  5
5C6
100
AcDbEntity
  8
0
100
AcDbVertex
100
AcDb2dVertex
 10
154.435287
 20
81.768997
 30
0.0
  0
VERTEX
  5
5C7
100
AcDbEntity
  8
0
100
AcDbVertex
100
AcDb2dVertex
 10
154.177505
 20
81.486412
 30
0.0
  0
VERTEX
  5
5C8
100
AcDbEntity
  8
0
100
AcDbVertex
100
AcDb2dVertex
 10
154.025986
 20
81.124527
 30
0.0
  0
VERTEX
  5
5C9
100
AcDbEntity
  8
0
100
AcDbVertex
100
AcDb2dVertex
 10
154.003891
 20
80.713264
 30
0.0
  0
VERTEX
  5
5CA
100
AcDbEntity
  8
0
100
AcDbVertex
100
AcDb2dVertex
 10
154.124786
 20
80.29808
 30
0.0
  0
VERTEX
  5
5CB
100
AcDbEntity
  8
0
100
AcDbVertex
100
AcDb2dVertex
 10
154.295029
 20
80.029526
 30
0.0
  0
SEQEND
  5
5CC
100
AcDbEntity
  8
0
  0
ELLIPSE
  5
5CD
100
AcDbEntity
  8
0
 62
     7
100
AcDbEllipse
 10
110.97702
 20
114.210564
 30
0.0
 11
-0.141265869140625
 21
-1.2442779541015625
 31
0.0
210
0.0
220
0.0
230
1.0
 40
0.869725
 41
3.2400209903717041
 42
4.2720832824707031
  0
ELLIPSE
  5
5CE
100
AcDbEntity
  8
0
 62
     7
100
AcDbEllipse
 10
110.977036
 20
114.211044
 30
0.0
 11
-0.1426239013671875
 21
-1.2439727783203125
 31
0.0
210
0.0
220
0.0
230
1.0
 40
0.86979
 41
4.8673954010009766
 42
6.0705337524414062
  0
ARC
  5
5CF
100
AcDbEntity
  8
0
 62
     7
100
AcDbCircle
 10
110.942734
 20
113.911613
 30
0.0
 40
0.950726
210
0.0
220
0.0
230
1.0
100
AcDbArc
 50
249.467991
 51
269.997518
  0
ELLIPSE
  5
5D0
100
AcDbEntity
  8
0
 62
     7
100
AcDbEllipse
 10
138.383743
 20
74.999916
 30
0.0
 11
0.7150421142578125
 21
-1.0698471069335937
 31
0.0
210
0.0
220
0.0
230
1.0
 40
0.903844
 41
2.5980701446533203
 42
5.739260196685791
  0
LINE
  5
5D1
100
AcDbEntity
  8
0
 62
     7
 48
0.106148
100
AcDbLine
 10
126.583252
 20
85.518585
 30
0.0
 11
123.103149
 21
83.086128
 31
0.0
210
0.0
220
0.0
230
1.0
  0
LINE
  5
5D2
100
AcDbEntity
  8
0
 62
     7
 48
0.061898
100
AcDbLine
 10
126.583252
 20
87.994492
 30
0.0
 11
126.583252
 21
85.518585
 31
0.0
210
0.0
220
0.0
230
1.0
  0
LINE
  5
5D3
100
AcDbEntity
  8
0
 62
     7
 48
0.106148
100
AcDbLine
 10
126.583252
 20
87.994492
 30
0.0
 11
123.103149
 21
85.562027
 31
0.0
210
0.0
220
0.0
230
1.0
  0
LINE
  5
5D4
100
AcDbEntity
  8
0
 62
     7
100
AcDbLine
 10
126.583252
 20
87.994492
 30
0.0
 11
182.451324
 21
130.55867
 31
0.0
210
0.0
220
0.0
230
1.0
  0
LINE
  5
5D5
100
AcDbEntity
  8
0
 62
     7
 48
0.007183
100
AcDbLine
 10
182.163986
 20
130.55867
 30
0.0
 11
182.451324
 21
130.55867
 31
0.0
210
0.0
220
0.0
230
1.0
  0
LINE
  5
5D6
100
AcDbEntity
  8
0
 62
     7
100
AcDbLine
 10
183.580566
 20
128.943085
 30
0.0
 11
126.583252
 21
85.518585
 31
0.0
210
0.0
220
0.0
230
1.0
  0
ELLIPSE
  5
5D7
100
AcDbEntity
  8
0
 62
     7
100
AcDbEllipse
 10
152.684219
 20
105.00016
 30
0.0
 11
43.849090576171875
 21
-0.0019149780273438
 31
0.0
210
0.0
220
0.0
230
1.0
 40
0.957827
 41
0.6304508447647095
 42
1.5708320140838623
  0
ELLIPSE
  5
5D8
100
AcDbEntity
  8
0
 62
     7
100
AcDbEllipse
 10
152.684036
 20
104.999985
 30
0.0
 11
43.84930419921875
 21
-0.0001602172851563
 31
0.0
210
0.0
220
0.0
230
1.0
 40
0.957826
 41
1.5707893371582031
 42
3.772003173828125
  0
ELLIPSE
  5
5D9
100
AcDbEntity
  8
0
 62
     7
100
AcDbEllipse
 10
152.684006
 20
105.000015
 30
0.0
 11
44.893325805664062
 21
-0.0002059936523438
 31
0.0
210
0.0
220
0.0
230
1.0
 40
0.957826
 41
4.7123827934265137
 42
6.9135966300964355
  0
ELLIPSE
  5
5DA
100
AcDbEntity
  8
0
 62
     7
100
AcDbEllipse
 10
152.684677
 20
105.001076
 30
0.0
 11
44.894119262695313
 21
0.0068588256835938
 31
0.0
210
0.0
220
0.0
230
1.0
 40
0.957833
 41
3.771852970123291
 42
4.7122173309326172
  0
LINE
  5
5DB
100
AcDbEntity
  8
0
 62
     7
 48
0.007184
100
AcDbLine
 10
187.968277
 20
134.980774
 30
0.0
 11
188.25563
 21
134.980774
 31
0.0
210
0.0
220
0.0
230
1.0
  0
LINE
  5
5DC
100
AcDbEntity
  8
0
 62
     7
 48
0.0613
100
AcDbLine
 10
186.305191
 20
133.494797
 30
0.0
 11
188.25563
 21
134.980774
 31
0.0
210
0.0
220
0.0
230
1.0
  0
LINE
  5
5DD
100
AcDbEntity
  8
0
 62
     7
 48
0.055724
100
AcDbLine
 10
189.384857
 20
133.365204
 30
0.0
 11
187.611847
 21
132.014404
 31
0.0
210
0.0
220
0.0
230
1.0
  0
ELLIPSE
  5
5DE
100
AcDbEntity
  8
0
 62
     7
100
AcDbEllipse
 10
150.528915
 20
105.0
 30
0.0
 11
0.0
 21
-49.5
 31
0.0
210
0.0
220
0.0
230
1.0
 40
0.957826
 41
2.1809999942779541
 42
2.2214069366455078
  0
ELLIPSE
  5
5DF
100
AcDbEntity
  8
0
 62
     7
100
AcDbEllipse
 10
152.68399
 20
104.999756
 30
0.0
 11
51.679611206054688
 21
0.0005874633789063
 31
0.0
210
0.0
220
0.0
230
1.0
 40
0.957829
 41
0.6303977966308594
 42
1.5707743167877197
  0
ELLIPSE
  5
5E0
100
AcDbEntity
  8
0
 62
     7
100
AcDbEllipse
 10
152.684036
 20
104.999985
 30
0.0
 11
51.679534912109375
 21
-0.000213623046875
 31
0.0
210
0.0
220
0.0
230
1.0
 40
0.957826
 41
1.5707899332046509
 42
3.7720034122467041
  0
ELLIPSE
  5
5E1
100
AcDbEntity
  8
0
 62
     7
100
AcDbEllipse
 10
152.684036
 20
105.000244
 30
0.0
 11
51.679611206054688
 21
0.0005874633789063
 31
0.0
210
0.0
220
0.0
230
1.0
 40
0.957829
 41
3.7719905376434326
 42
4.712367057800293
  0
ELLIPSE
  5
5E2
100
AcDbEntity
  8
0
 62
     7
100
AcDbEllipse
 10
152.68399
 20
105.000015
 30
0.0
 11
51.679534912109375
 21
-0.000213623046875
 31
0.0
210
0.0
220
0.0
230
1.0
 40
0.957826
 41
4.7123827934265137
 42
6.9135961532592773
  0
ARC
  5
5E3
100
AcDbEntity
  8
0
 62
     7
100
AcDbCircle
 10
90.912712
 20
152.796478
 30
0.0
 40
1.341425
210
0.0
220
0.0
230
1.0
100
AcDbArc
 50
232.54225
 51
270.148185
  0
POLYLINE
  5
5E4
100
AcDbEntity
  8
0
 62
     7
100
AcDb2dPolyline
 66
     1
 10
0.0
 20
0.0
 30
0.0
 71
     9
  0
VERTEX
  5
5E5
100
AcDbEntity
  8
0
100
AcDbVertex
100
AcDb2dVertex
 10
90.916183
 20
151.454895
 30
0.0
  0
VERTEX
  5
5E6
100
AcDbEntity
  8
0
100
AcDbVertex
100
AcDb2dVertex
 10
91.355827
 20
151.527954
 30
0.0
  0
VERTEX
  5
5E7
100
AcDbEntity
  8
0
100
AcDbVertex
100
AcDb2dVertex
 10
91.747108
 20
151.740997
 30
0.0
  0
VERTEX
  5
5E8
100
AcDbEntity
  8
0
100
AcDbVertex
100
AcDb2dVertex
 10
92.002045
 20
152.01152
 30
0.0
  0
VERTEX
  5
5E9
100
AcDbEntity
  8
0
100
AcDbVertex
100
AcDb2dVertex
 10
92.165962
 20
152.345001
 30
0.0
  0
VERTEX
  5
5EA
100
AcDbEntity
  8
0
100
AcDbVertex
100
AcDb2dVertex
 10
92.221191
 20
152.712357
 30
0.0
  0
VERTEX
  5
5EB
100
AcDbEntity
  8
0
100
AcDbVertex
100
AcDb2dVertex
 10
92.1614
 20
153.078995
 30
0.0
  0
VERTEX
  5
5EC
100
AcDbEntity
  8
0
100
AcDbVertex
100
AcDb2dVertex
 10
91.993439
 20
153.410461
 30
0.0
  0
VERTEX
  5
5ED
100
AcDbEntity
  8
0
100
AcDbVertex
100
AcDb2dVertex
 10
91.735352
 20
153.677963
 30
0.0
  0
SEQEND
  5
5EE
100
AcDbEntity
  8
0
  0
ARC
  5
5EF
100
AcDbEntity
  8
0
 62
     7
100
AcDbCircle
 10
90.919647
 20
152.613297
 30
0.0
 40
1.341425
210
0.0
220
0.0
230
1.0
100
AcDbArc
 50
52.542248
 51
90.148183
  0
POLYLINE
  5
5F0
100
AcDbEntity
  8
0
 62
     7
100
AcDb2dPolyline
 66
     1
 10
0.0
 20
0.0
 30
0.0
 71
     9
  0
VERTEX
  5
5F1
100
AcDbEntity
  8
0
100
AcDbVertex
100
AcDb2dVertex
 10
90.916183
 20
153.954895
 30
0.0
  0
VERTEX
  5
5F2
100
AcDbEntity
  8
0
100
AcDbVertex
100
AcDb2dVertex
 10
90.476532
 20
153.881821
 30
0.0
  0
VERTEX
  5
5F3
100
AcDbEntity
  8
0
100
AcDbVertex
100
AcDb2dVertex
 10
90.085251
 20
153.668762
 30
0.0
  0
VERTEX
  5
5F4
100
AcDbEntity
  8
0
100
AcDbVertex
100
AcDb2dVertex
 10
89.830322
 20
153.398254
 30
0.0
  0
VERTEX
  5
5F5
100
AcDbEntity
  8
0
100
AcDbVertex
100
AcDb2dVertex
 10
89.666397
 20
153.064758
 30
0.0
  0
VERTEX
  5
5F6
100
AcDbEntity
  8
0
100
AcDbVertex
100
AcDb2dVertex
 10
89.611176
 20
152.697418
 30
0.0
  0
VERTEX
  5
5F7
100
AcDbEntity
  8
0
100
AcDbVertex
100
AcDb2dVertex
 10
89.670959
 20
152.33078
 30
0.0
  0
VERTEX
  5
5F8
100
AcDbEntity
  8
0
100
AcDbVertex
100
AcDb2dVertex
 10
89.838928
 20
151.999298
 30
0.0
  0
VERTEX
  5
5F9
100
AcDbEntity
  8
0
100
AcDbVertex
100
AcDb2dVertex
 10
90.097015
 20
151.731812
 30
0.0
  0
SEQEND
  5
5FA
100
AcDbEntity
  8
0
  0
ARC
  5
5FB
100
AcDbEntity
  8
0
 62
     7
100
AcDbCircle
 10
105.902786
 20
166.467041
 30
0.0
 40
1.324574
210
0.0
220
0.0
230
1.0
100
AcDbArc
 50
217.83494
 51
270.393505
  0
POLYLINE
  5
5FC
100
AcDbEntity
  8
0
 62
     7
100
AcDb2dPolyline
 66
     1
 10
0.0
 20
0.0
 30
0.0
 71
     8
  0
VERTEX
  5
5FD
100
AcDbEntity
  8
0
100
AcDbVertex
100
AcDb2dVertex
 10
105.911888
 20
165.141861
 30
0.0
  0
VERTEX
  5
5FE
100
AcDbEntity
  8
0
100
AcDbVertex
100
AcDb2dVertex
 10
106.346085
 20
165.213226
 30
0.0
  0
VERTEX
  5
5FF
100
AcDbEntity
  8
0
100
AcDbVertex
100
AcDb2dVertex
 10
106.733727
 20
165.421204
 30
0.0
  0
VERTEX
  5
600
100
AcDbEntity
  8
0
100
AcDbVertex
100
AcDb2dVertex
 10
107.029266
 20
165.746765
 30
0.0
  0
VERTEX
  5
601
100
AcDbEntity
  8
0
100
AcDbVertex
100
AcDb2dVertex
 10
107.17601
 20
166.082977
 30
0.0
  0
VERTEX
  5
602
100
AcDbEntity
  8
0
100
AcDbVertex
100
AcDb2dVertex
 10
107.215179
 20
166.447662
 30
0.0
  0
VERTEX
  5
603
100
AcDbEntity
  8
0
100
AcDbVertex
100
AcDb2dVertex
 10
107.142342
 20
166.807175
 30
0.0
  0
VERTEX
  5
604
100
AcDbEntity
  8
0
100
AcDbVertex
100
AcDb2dVertex
 10
106.965637
 20
167.128693
 30
0.0
  0
SEQEND
  5
605
100
AcDbEntity
  8
0
  0
ARC
  5
606
100
AcDbEntity
  8
0
 62
     7
100
AcDbCircle
 10
105.920105
 20
166.316681
 30
0.0
 40
1.324574
210
0.0
220
0.0
230
1.0
100
AcDbArc
 50
37.834938
 51
90.39351
  0
POLYLINE
  5
607
100
AcDbEntity
  8
0
 62
     7
100
AcDb2dPolyline
 66
     1
 10
0.0
 20
0.0
 30
0.0
 71
     8
  0
VERTEX
  5
608
100
AcDbEntity
  8
0
100
AcDbVertex
100
AcDb2dVertex
 10
105.911003
 20
167.641846
 30
0.0
  0
VERTEX
  5
609
100
AcDbEntity
  8
0
100
AcDbVertex
100
AcDb2dVertex
 10
105.476807
 20
167.570496
 30
0.0
  0
VERTEX
  5
60A
100
AcDbEntity
  8
0
100
AcDbVertex
100
AcDb2dVertex
 10
105.089165
 20
167.362518
 30
0.0
  0
VERTEX
  5
60B
100
AcDbEntity
  8
0
100
AcDbVertex
100
AcDb2dVertex
 10
104.793625
 20
167.036942
 30
0.0
  0
VERTEX
  5
60C
100
AcDbEntity
  8
0
100
AcDbVertex
100
AcDb2dVertex
 10
104.646881
 20
166.700729
 30
0.0
  0
VERTEX
  5
60D
100
AcDbEntity
  8
0
100
AcDbVertex
100
AcDb2dVertex
 10
104.607712
 20
166.336044
 30
0.0
  0
VERTEX
  5
60E
100
AcDbEntity
  8
0
100
AcDbVertex
100
AcDb2dVertex
 10
104.68055
 20
165.976532
 30
0.0
  0
VERTEX
  5
60F
100
AcDbEntity
  8
0
100
AcDbVertex
100
AcDb2dVertex
 10
104.857254
 20
165.655014
 30
0.0
  0
SEQEND
  5
610
100
AcDbEntity
  8
0
  0
POLYLINE
  5
611
100
AcDbEntity
  8
0
 62
     7
100
AcDb2dPolyline
 66
     1
 10
0.0
 20
0.0
 30
0.0
 71
     5
  0
VERTEX
  5
612
100
AcDbEntity
  8
0
100
AcDbVertex
100
AcDb2dVertex
 10
122.876801
 20
175.444672
 30
0.0
  0
VERTEX
  5
613
100
AcDbEntity
  8
0
100
AcDbVertex
100
AcDb2dVertex
 10
123.074684
 20
175.114746
 30
0.0
  0
VERTEX
  5
614
100
AcDbEntity
  8
0
100
AcDbVertex
100
AcDb2dVertex
 10
123.362938
 20
174.859741
 30
0.0
  0
VERTEX
  5
615
100
AcDbEntity
  8
0
100
AcDbVertex
100
AcDb2dVertex
 10
123.713013
 20
174.699585
 30
0.0
  0
VERTEX
  5
616
100
AcDbEntity
  8
0
100
AcDbVertex
100
AcDb2dVertex
 10
124.094185
 20
174.645081
 30
0.0
  0
SEQEND
  5
617
100
AcDbEntity
  8
0
  0
POLYLINE
  5
618
100
AcDbEntity
  8
0
 62
     7
100
AcDb2dPolyline
 66
     1
 10
0.0
 20
0.0
 30
0.0
 71
     8
  0
VERTEX
  5
619
100
AcDbEntity
  8
0
100
AcDbVertex
100
AcDb2dVertex
 10
124.094185
 20
174.645081
 30
0.0
  0
VERTEX
  5
61A
100
AcDbEntity
  8
0
100
AcDbVertex
100
AcDb2dVertex
 10
124.534935
 20
174.718521
 30
0.0
  0
VERTEX
  5
61B
100
AcDbEntity
  8
0
100
AcDbVertex
100
AcDb2dVertex
 10
124.926994
 20
174.932678
 30
0.0
  0
VERTEX
  5
61C
100
AcDbEntity
  8
0
100
AcDbVertex
100
AcDb2dVertex
 10
125.181976
 20
175.204498
 30
0.0
  0
VERTEX
  5
61D
100
AcDbEntity
  8
0
100
AcDbVertex
100
AcDb2dVertex
 10
125.345268
 20
175.539368
 30
0.0
  0
VERTEX
  5
61E
100
AcDbEntity
  8
0
100
AcDbVertex
100
AcDb2dVertex
 10
125.399155
 20
175.907959
 30
0.0
  0
VERTEX
  5
61F
100
AcDbEntity
  8
0
100
AcDbVertex
100
AcDb2dVertex
 10
125.337387
 20
176.275269
 30
0.0
  0
VERTEX
  5
620
100
AcDbEntity
  8
0
100
AcDbVertex
100
AcDb2dVertex
 10
125.311562
 20
176.345459
 30
0.0
  0
SEQEND
  5
621
100
AcDbEntity
  8
0
  0
POLYLINE
  5
622
100
AcDbEntity
  8
0
 62
     7
100
AcDb2dPolyline
 66
     1
 10
0.0
 20
0.0
 30
0.0
 71
     5
  0
VERTEX
  5
623
100
AcDbEntity
  8
0
100
AcDbVertex
100
AcDb2dVertex
 10
125.311562
 20
176.345459
 30
0.0
  0
VERTEX
  5
624
100
AcDbEntity
  8
0
100
AcDbVertex
100
AcDb2dVertex
 10
125.113686
 20
176.675415
 30
0.0
  0
VERTEX
  5
625
100
AcDbEntity
  8
0
100
AcDbVertex
100
AcDb2dVertex
 10
124.825432
 20
176.93042
 30
0.0
  0
VERTEX
  5
626
100
AcDbEntity
  8
0
100
AcDbVertex
100
AcDb2dVertex
 10
124.475357
 20
177.090561
 30
0.0
  0
VERTEX
  5
627
100
AcDbEntity
  8
0
100
AcDbVertex
100
AcDb2dVertex
 10
124.094185
 20
177.145081
 30
0.0
  0
SEQEND
  5
628
100
AcDbEntity
  8
0
  0
POLYLINE
  5
629
100
AcDbEntity
  8
0
 62
     7
100
AcDb2dPolyline
 66
     1
 10
0.0
 20
0.0
 30
0.0
 71
     8
  0
VERTEX
  5
62A
100
AcDbEntity
  8
0
100
AcDbVertex
100
AcDb2dVertex
 10
124.094185
 20
177.145081
 30
0.0
  0
VERTEX
  5
62B
100
AcDbEntity
  8
0
100
AcDbVertex
100
AcDb2dVertex
 10
123.653435
 20
177.071625
 30
0.0
  0
VERTEX
  5
62C
100
AcDbEntity
  8
0
100
AcDbVertex
100
AcDb2dVertex
 10
123.261375
 20
176.857452
 30
0.0
  0
VERTEX
  5
62D
100
AcDbEntity
  8
0
100
AcDbVertex
100
AcDb2dVertex
 10
123.006393
 20
176.585663
 30
0.0
  0
VERTEX
  5
62E
100
AcDbEntity
  8
0
100
AcDbVertex
100
AcDb2dVertex
 10
122.843102
 20
176.250778
 30
0.0
  0
VERTEX
  5
62F
100
AcDbEntity
  8
0
100
AcDbVertex
100
AcDb2dVertex
 10
122.789215
 20
175.882202
 30
0.0
  0
VERTEX
  5
630
100
AcDbEntity
  8
0
100
AcDbVertex
100
AcDb2dVertex
 10
122.850983
 20
175.514862
 30
0.0
  0
VERTEX
  5
631
100
AcDbEntity
  8
0
100
AcDbVertex
100
AcDb2dVertex
 10
122.876801
 20
175.444672
 30
0.0
  0
SEQEND
  5
632
100
AcDbEntity
  8
0
  0
POLYLINE
  5
633
100
AcDbEntity
  8
0
 62
     7
100
AcDb2dPolyline
 66
     1
 10
0.0
 20
0.0
 30
0.0
 71
     6
  0
VERTEX
  5
634
100
AcDbEntity
  8
0
100
AcDbVertex
100
AcDb2dVertex
 10
142.927673
 20
180.433655
 30
0.0
  0
VERTEX
  5
635
100
AcDbEntity
  8
0
100
AcDbVertex
100
AcDb2dVertex
 10
143.026108
 20
180.07373
 30
0.0
  0
VERTEX
  5
636
100
AcDbEntity
  8
0
100
AcDbVertex
100
AcDb2dVertex
 10
143.22847
 20
179.760101
 30
0.0
  0
VERTEX
  5
637
100
AcDbEntity
  8
0
100
AcDbVertex
100
AcDb2dVertex
 10
143.578354
 20
179.481293
 30
0.0
  0
VERTEX
  5
638
100
AcDbEntity
  8
0
100
AcDbVertex
100
AcDb2dVertex
 10
144.00148
 20
179.335419
 30
0.0
  0
VERTEX
  5
639
100
AcDbEntity
  8
0
100
AcDbVertex
100
AcDb2dVertex
 10
144.225281
 20
179.31691
 30
0.0
  0
SEQEND
  5
63A
100
AcDbEntity
  8
0
  0
POLYLINE
  5
63B
100
AcDbEntity
  8
0
 62
     7
100
AcDb2dPolyline
 66
     1
 10
0.0
 20
0.0
 30
0.0
 71
     7
  0
VERTEX
  5
63C
100
AcDbEntity
  8
0
100
AcDbVertex
100
AcDb2dVertex
 10
144.225281
 20
179.31691
 30
0.0
  0
VERTEX
  5
63D
100
AcDbEntity
  8
0
100
AcDbVertex
100
AcDb2dVertex
 10
144.675339
 20
179.393585
 30
0.0
  0
VERTEX
  5
63E
100
AcDbEntity
  8
0
100
AcDbVertex
100
AcDb2dVertex
 10
145.012833
 20
179.57019
 30
0.0
  0
VERTEX
  5
63F
100
AcDbEntity
  8
0
100
AcDbVertex
100
AcDb2dVertex
 10
145.284653
 20
179.836914
 30
0.0
  0
VERTEX
  5
640
100
AcDbEntity
  8
0
100
AcDbVertex
100
AcDb2dVertex
 10
145.46376
 20
180.172836
 30
0.0
  0
VERTEX
  5
641
100
AcDbEntity
  8
0
100
AcDbVertex
100
AcDb2dVertex
 10
145.530151
 20
180.547562
 30
0.0
  0
VERTEX
  5
642
100
AcDbEntity
  8
0
100
AcDbVertex
100
AcDb2dVertex
 10
145.522873
 20
180.700165
 30
0.0
  0
SEQEND
  5
643
100
AcDbEntity
  8
0
  0
POLYLINE
  5
644
100
AcDbEntity
  8
0
 62
     7
100
AcDb2dPolyline
 66
     1
 10
0.0
 20
0.0
 30
0.0
 71
     6
  0
VERTEX
  5
645
100
AcDbEntity
  8
0
100
AcDbVertex
100
AcDb2dVertex
 10
145.522873
 20
180.700165
 30
0.0
  0
VERTEX
  5
646
100
AcDbEntity
  8
0
100
AcDbVertex
100
AcDb2dVertex
 10
145.424438
 20
181.060089
 30
0.0
  0
VERTEX
  5
647
100
AcDbEntity
  8
0
100
AcDbVertex
100
AcDb2dVertex
 10
145.222061
 20
181.373718
 30
0.0
  0
VERTEX
  5
648
100
AcDbEntity
  8
0
100
AcDbVertex
100
AcDb2dVertex
 10
144.872192
 20
181.652527
 30
0.0
  0
VERTEX
  5
649
100
AcDbEntity
  8
0
100
AcDbVertex
100
AcDb2dVertex
 10
144.449066
 20
181.798401
 30
0.0
  0
VERTEX
  5
64A
100
AcDbEntity
  8
0
100
AcDbVertex
100
AcDb2dVertex
 10
144.225266
 20
181.816895
 30
0.0
  0
SEQEND
  5
64B
100
AcDbEntity
  8
0
  0
POLYLINE
  5
64C
100
AcDbEntity
  8
0
 62
     7
100
AcDb2dPolyline
 66
     1
 10
0.0
 20
0.0
 30
0.0
 71
     7
  0
VERTEX
  5
64D
100
AcDbEntity
  8
0
100
AcDbVertex
100
AcDb2dVertex
 10
144.225266
 20
181.816895
 30
0.0
  0
VERTEX
  5
64E
100
AcDbEntity
  8
0
100
AcDbVertex
100
AcDb2dVertex
 10
143.775192
 20
181.740219
 30
0.0
  0
VERTEX
  5
64F
100
AcDbEntity
  8
0
100
AcDbVertex
100
AcDb2dVertex
 10
143.437714
 20
181.563629
 30
0.0
  0
VERTEX
  5
650
100
AcDbEntity
  8
0
100
AcDbVertex
100
AcDb2dVertex
 10
143.165894
 20
181.29689
 30
0.0
  0
VERTEX
  5
651
100
AcDbEntity
  8
0
100
AcDbVertex
100
AcDb2dVertex
 10
142.986786
 20
180.960983
 30
0.0
  0
VERTEX
  5
652
100
AcDbEntity
  8
0
100
AcDbVertex
100
AcDb2dVertex
 10
142.920395
 20
180.586243
 30
0.0
  0
VERTEX
  5
653
100
AcDbEntity
  8
0
100
AcDbVertex
100
AcDb2dVertex
 10
142.927673
 20
180.433655
 30
0.0
  0
SEQEND
  5
654
100
AcDbEntity
  8
0
  0
ARC
  5
655
100
AcDbEntity
  8
0
 62
     7
100
AcDbCircle
 10
231.079285
 20
93.156593
 30
0.0
 40
1.361189
210
0.0
220
0.0
230
1.0
100
AcDbArc
 50
81.491342
 51
90.002475
  0
POLYLINE
  5
656
100
AcDbEntity
  8
0
 62
     7
100
AcDb2dPolyline
 66
     1
 10
0.0
 20
0.0
 30
0.0
 71
    11
  0
VERTEX
  5
657
100
AcDbEntity
  8
0
100
AcDbVertex
100
AcDb2dVertex
 10
231.079224
 20
94.517784
 30
0.0
  0
VERTEX
  5
658
100
AcDbEntity
  8
0
100
AcDbVertex
100
AcDb2dVertex
 10
230.646973
 20
94.447235
 30
0.0
  0
VERTEX
  5
659
100
AcDbEntity
  8
0
100
AcDbVertex
100
AcDb2dVertex
 10
230.260635
 20
94.24131
 30
0.0
  0
VERTEX
  5
65A
100
AcDbEntity
  8
0
100
AcDbVertex
100
AcDb2dVertex
 10
229.965027
 20
93.918602
 30
0.0
  0
VERTEX
  5
65B
100
AcDbEntity
  8
0
100
AcDbVertex
100
AcDb2dVertex
 10
229.816864
 20
93.584892
 30
0.0
  0
VERTEX
  5
65C
100
AcDbEntity
  8
0
100
AcDbVertex
100
AcDb2dVertex
 10
229.775055
 20
93.222282
 30
0.0
  0
VERTEX
  5
65D
100
AcDbEntity
  8
0
100
AcDbVertex
100
AcDb2dVertex
 10
229.844208
 20
92.863823
 30
0.0
  0
VERTEX
  5
65E
100
AcDbEntity
  8
0
100
AcDbVertex
100
AcDb2dVertex
 10
230.062164
 20
92.484512
 30
0.0
  0
VERTEX
  5
65F
100
AcDbEntity
  8
0
100
AcDbVertex
100
AcDb2dVertex
 10
230.396744
 20
92.202332
 30
0.0
  0
VERTEX
  5
660
100
AcDbEntity
  8
0
100
AcDbVertex
100
AcDb2dVertex
 10
230.805603
 20
92.04557
 30
0.0
  0
VERTEX
  5
661
100
AcDbEntity
  8
0
100
AcDbVertex
100
AcDb2dVertex
 10
230.877747
 20
92.032768
 30
0.0
  0
SEQEND
  5
662
100
AcDbEntity
  8
0
  0
ARC
  5
663
100
AcDbEntity
  8
0
 62
     7
100
AcDbCircle
 10
231.079163
 20
93.378975
 30
0.0
 40
1.361189
210
0.0
220
0.0
230
1.0
100
AcDbArc
 50
261.491344
 51
270.002477
  0
POLYLINE
  5
664
100
AcDbEntity
  8
0
 62
     7
100
AcDb2dPolyline
 66
     1
 10
0.0
 20
0.0
 30
0.0
 71
    11
  0
VERTEX
  5
665
100
AcDbEntity
  8
0
100
AcDbVertex
100
AcDb2dVertex
 10
231.079224
 20
92.017784
 30
0.0
  0
VERTEX
  5
666
100
AcDbEntity
  8
0
100
AcDbVertex
100
AcDb2dVertex
 10
231.511459
 20
92.088341
 30
0.0
  0
VERTEX
  5
667
100
AcDbEntity
  8
0
100
AcDbVertex
100
AcDb2dVertex
 10
231.897797
 20
92.294266
 30
0.0
  0
VERTEX
  5
668
100
AcDbEntity
  8
0
100
AcDbVertex
100
AcDb2dVertex
 10
232.19342
 20
92.616974
 30
0.0
  0
VERTEX
  5
669
100
AcDbEntity
  8
0
100
AcDbVertex
100
AcDb2dVertex
 10
232.341553
 20
92.950684
 30
0.0
  0
VERTEX
  5
66A
100
AcDbEntity
  8
0
100
AcDbVertex
100
AcDb2dVertex
 10
232.383392
 20
93.313286
 30
0.0
  0
VERTEX
  5
66B
100
AcDbEntity
  8
0
100
AcDbVertex
100
AcDb2dVertex
 10
232.314224
 20
93.671745
 30
0.0
  0
VERTEX
  5
66C
100
AcDbEntity
  8
0
100
AcDbVertex
100
AcDb2dVertex
 10
232.096252
 20
94.051064
 30
0.0
  0
VERTEX
  5
66D
100
AcDbEntity
  8
0
100
AcDbVertex
100
AcDb2dVertex
 10
231.761688
 20
94.333237
 30
0.0
  0
VERTEX
  5
66E
100
AcDbEntity
  8
0
100
AcDbVertex
100
AcDb2dVertex
 10
231.352844
 20
94.490005
 30
0.0
  0
VERTEX
  5
66F
100
AcDbEntity
  8
0
100
AcDbVertex
100
AcDb2dVertex
 10
231.28067
 20
94.5028
 30
0.0
  0
SEQEND
  5
670
100
AcDbEntity
  8
0
  0
ARC
  5
671
100
AcDbEntity
  8
0
 62
     7
100
AcDbCircle
 10
217.669571
 20
95.163422
 30
0.0
 40
1.361189
210
0.0
220
0.0
230
1.0
100
AcDbArc
 50
81.491342
 51
90.002475
  0
POLYLINE
  5
672
100
AcDbEntity
  8
0
 62
     7
100
AcDb2dPolyline
 66
     1
 10
0.0
 20
0.0
 30
0.0
 71
    11
  0
VERTEX
  5
673
100
AcDbEntity
  8
0
100
AcDbVertex
100
AcDb2dVertex
 10
217.669525
 20
96.524612
 30
0.0
  0
VERTEX
  5
674
100
AcDbEntity
  8
0
100
AcDbVertex
100
AcDb2dVertex
 10
217.237274
 20
96.454056
 30
0.0
  0
VERTEX
  5
675
100
AcDbEntity
  8
0
100
AcDbVertex
100
AcDb2dVertex
 10
216.850922
 20
96.248131
 30
0.0
  0
VERTEX
  5
676
100
AcDbEntity
  8
0
100
AcDbVertex
100
AcDb2dVertex
 10
216.555313
 20
95.92543
 30
0.0
  0
VERTEX
  5
677
100
AcDbEntity
  8
0
100
AcDbVertex
100
AcDb2dVertex
 10
216.407166
 20
95.591721
 30
0.0
  0
VERTEX
  5
678
100
AcDbEntity
  8
0
100
AcDbVertex
100
AcDb2dVertex
 10
216.365341
 20
95.229111
 30
0.0
  0
VERTEX
  5
679
100
AcDbEntity
  8
0
100
AcDbVertex
100
AcDb2dVertex
 10
216.434509
 20
94.870651
 30
0.0
  0
VERTEX
  5
67A
100
AcDbEntity
  8
0
100
AcDbVertex
100
AcDb2dVertex
 10
216.652466
 20
94.491333
 30
0.0
  0
VERTEX
  5
67B
100
AcDbEntity
  8
0
100
AcDbVertex
100
AcDb2dVertex
 10
216.98703
 20
94.20916
 30
0.0
  0
VERTEX
  5
67C
100
AcDbEntity
  8
0
100
AcDbVertex
100
AcDb2dVertex
 10
217.395889
 20
94.052399
 30
0.0
  0
VERTEX
  5
67D
100
AcDbEntity
  8
0
100
AcDbVertex
100
AcDb2dVertex
 10
217.468048
 20
94.039597
 30
0.0
  0
SEQEND
  5
67E
100
AcDbEntity
  8
0
  0
ARC
  5
67F
100
AcDbEntity
  8
0
 62
     7
100
AcDbCircle
 10
217.669449
 20
95.385803
 30
0.0
 40
1.361189
210
0.0
220
0.0
230
1.0
100
AcDbArc
 50
261.491344
 51
270.002477
  0
POLYLINE
  5
680
100
AcDbEntity
  8
0
 62
     7
100
AcDb2dPolyline
 66
     1
 10
0.0
 20
0.0
 30
0.0
 71
    11
  0
VERTEX
  5
681
100
AcDbEntity
  8
0
100
AcDbVertex
100
AcDb2dVertex
 10
217.66951
 20
94.024612
 30
0.0
  0
VERTEX
  5
682
100
AcDbEntity
  8
0
100
AcDbVertex
100
AcDb2dVertex
 10
218.061005
 20
94.082184
 30
0.0
  0
VERTEX
  5
683
100
AcDbEntity
  8
0
100
AcDbVertex
100
AcDb2dVertex
 10
218.418701
 20
94.251114
 30
0.0
  0
VERTEX
  5
684
100
AcDbEntity
  8
0
100
AcDbVertex
100
AcDb2dVertex
 10
218.709381
 20
94.519318
 30
0.0
  0
VERTEX
  5
685
100
AcDbEntity
  8
0
100
AcDbVertex
100
AcDb2dVertex
 10
218.902283
 20
94.864395
 30
0.0
  0
VERTEX
  5
686
100
AcDbEntity
  8
0
100
AcDbVertex
100
AcDb2dVertex
 10
218.97435
 20
95.252945
 30
0.0
  0
VERTEX
  5
687
100
AcDbEntity
  8
0
100
AcDbVertex
100
AcDb2dVertex
 10
218.916306
 20
95.643875
 30
0.0
  0
VERTEX
  5
688
100
AcDbEntity
  8
0
100
AcDbVertex
100
AcDb2dVertex
 10
218.735657
 20
95.995499
 30
0.0
  0
VERTEX
  5
689
100
AcDbEntity
  8
0
100
AcDbVertex
100
AcDb2dVertex
 10
218.454285
 20
96.273354
 30
0.0
  0
VERTEX
  5
68A
100
AcDbEntity
  8
0
100
AcDbVertex
100
AcDb2dVertex
 10
218.10228
 20
96.45388
 30
0.0
  0
VERTEX
  5
68B
100
AcDbEntity
  8
0
100
AcDbVertex
100
AcDb2dVertex
 10
217.870972
 20
96.509628
 30
0.0
  0
SEQEND
  5
68C
100
AcDbEntity
  8
0
  0
ARC
  5
68D
100
AcDbEntity
  8
0
 62
     7
100
AcDbCircle
 10
96.529015
 20
137.90361
 30
0.0
 40
1.348399
210
0.0
220
0.0
230
1.0
100
AcDbArc
 50
239.825977
 51
270.078586
  0
POLYLINE
  5
68E
100
AcDbEntity
  8
0
 62
     7
100
AcDb2dPolyline
 66
     1
 10
0.0
 20
0.0
 30
0.0
 71
     9
  0
VERTEX
  5
68F
100
AcDbEntity
  8
0
100
AcDbVertex
100
AcDb2dVertex
 10
96.530869
 20
136.555145
 30
0.0
  0
VERTEX
  5
690
100
AcDbEntity
  8
0
100
AcDbVertex
100
AcDb2dVertex
 10
96.963486
 20
136.625824
 30
0.0
  0
VERTEX
  5
691
100
AcDbEntity
  8
0
100
AcDbVertex
100
AcDb2dVertex
 10
97.350166
 20
136.832169
 30
0.0
  0
VERTEX
  5
692
100
AcDbEntity
  8
0
100
AcDbVertex
100
AcDb2dVertex
 10
97.645775
 20
137.155457
 30
0.0
  0
VERTEX
  5
693
100
AcDbEntity
  8
0
100
AcDbVertex
100
AcDb2dVertex
 10
97.793663
 20
137.489685
 30
0.0
  0
VERTEX
  5
694
100
AcDbEntity
  8
0
100
AcDbVertex
100
AcDb2dVertex
 10
97.834953
 20
137.852768
 30
0.0
  0
VERTEX
  5
695
100
AcDbEntity
  8
0
100
AcDbVertex
100
AcDb2dVertex
 10
97.765045
 20
138.211426
 30
0.0
  0
VERTEX
  5
696
100
AcDbEntity
  8
0
100
AcDbVertex
100
AcDb2dVertex
 10
97.546036
 20
138.590652
 30
0.0
  0
VERTEX
  5
697
100
AcDbEntity
  8
0
100
AcDbVertex
100
AcDb2dVertex
 10
97.210419
 20
138.872314
 30
0.0
  0
SEQEND
  5
698
100
AcDbEntity
  8
0
  0
ARC
  5
699
100
AcDbEntity
  8
0
 62
     7
100
AcDbCircle
 10
96.532715
 20
137.70668
 30
0.0
 40
1.348399
210
0.0
220
0.0
230
1.0
100
AcDbArc
 50
59.825975
 51
90.078584
  0
POLYLINE
  5
69A
100
AcDbEntity
  8
0
 62
     7
100
AcDb2dPolyline
 66
     1
 10
0.0
 20
0.0
 30
0.0
 71
    10
  0
VERTEX
  5
69B
100
AcDbEntity
  8
0
100
AcDbVertex
100
AcDb2dVertex
 10
96.530869
 20
139.055145
 30
0.0
  0
VERTEX
  5
69C
100
AcDbEntity
  8
0
100
AcDbVertex
100
AcDb2dVertex
 10
96.134033
 20
138.995956
 30
0.0
  0
VERTEX
  5
69D
100
AcDbEntity
  8
0
100
AcDbVertex
100
AcDb2dVertex
 10
95.772346
 20
138.822327
 30
0.0
  0
VERTEX
  5
69E
100
AcDbEntity
  8
0
100
AcDbVertex
100
AcDb2dVertex
 10
95.480637
 20
138.54715
 30
0.0
  0
VERTEX
  5
69F
100
AcDbEntity
  8
0
100
AcDbVertex
100
AcDb2dVertex
 10
95.290634
 20
138.194168
 30
0.0
  0
VERTEX
  5
6A0
100
AcDbEntity
  8
0
100
AcDbVertex
100
AcDb2dVertex
 10
95.225845
 20
137.79866
 30
0.0
  0
VERTEX
  5
6A1
100
AcDbEntity
  8
0
100
AcDbVertex
100
AcDb2dVertex
 10
95.294884
 20
137.403931
 30
0.0
  0
VERTEX
  5
6A2
100
AcDbEntity
  8
0
100
AcDbVertex
100
AcDb2dVertex
 10
95.488571
 20
137.052948
 30
0.0
  0
VERTEX
  5
6A3
100
AcDbEntity
  8
0
100
AcDbVertex
100
AcDb2dVertex
 10
95.783066
 20
136.780716
 30
0.0
  0
VERTEX
  5
6A4
100
AcDbEntity
  8
0
100
AcDbVertex
100
AcDb2dVertex
 10
95.851311
 20
136.737976
 30
0.0
  0
SEQEND
  5
6A5
100
AcDbEntity
  8
0
  0
POLYLINE
  5
6A6
100
AcDbEntity
  8
0
 62
     7
100
AcDb2dPolyline
 66
     1
 10
0.0
 20
0.0
 30
0.0
 71
     6
  0
VERTEX
  5
6A7
100
AcDbEntity
  8
0
100
AcDbVertex
100
AcDb2dVertex
 10
135.927505
 20
165.934113
 30
0.0
  0
VERTEX
  5
6A8
100
AcDbEntity
  8
0
100
AcDbVertex
100
AcDb2dVertex
 10
136.080841
 20
165.578918
 30
0.0
  0
VERTEX
  5
6A9
100
AcDbEntity
  8
0
100
AcDbVertex
100
AcDb2dVertex
 10
136.336105
 20
165.28804
 30
0.0
  0
VERTEX
  5
6AA
100
AcDbEntity
  8
0
100
AcDbVertex
100
AcDb2dVertex
 10
136.666321
 20
165.085983
 30
0.0
  0
VERTEX
  5
6AB
100
AcDbEntity
  8
0
100
AcDbVertex
100
AcDb2dVertex
 10
137.040787
 20
164.987305
 30
0.0
  0
VERTEX
  5
6AC
100
AcDbEntity
  8
0
100
AcDbVertex
100
AcDb2dVertex
 10
137.195847
 20
164.978455
 30
0.0
  0
SEQEND
  5
6AD
100
AcDbEntity
  8
0
  0
POLYLINE
  5
6AE
100
AcDbEntity
  8
0
 62
     7
100
AcDb2dPolyline
 66
     1
 10
0.0
 20
0.0
 30
0.0
 71
     7
  0
VERTEX
  5
6AF
100
AcDbEntity
  8
0
100
AcDbVertex
100
AcDb2dVertex
 10
137.195847
 20
164.978455
 30
0.0
  0
VERTEX
  5
6B0
100
AcDbEntity
  8
0
100
AcDbVertex
100
AcDb2dVertex
 10
137.633942
 20
165.050995
 30
0.0
  0
VERTEX
  5
6B1
100
AcDbEntity
  8
0
100
AcDbVertex
100
AcDb2dVertex
 10
138.0242
 20
165.262543
 30
0.0
  0
VERTEX
  5
6B2
100
AcDbEntity
  8
0
100
AcDbVertex
100
AcDb2dVertex
 10
138.279053
 20
165.531265
 30
0.0
  0
VERTEX
  5
6B3
100
AcDbEntity
  8
0
100
AcDbVertex
100
AcDb2dVertex
 10
138.443817
 20
165.862823
 30
0.0
  0
VERTEX
  5
6B4
100
AcDbEntity
  8
0
100
AcDbVertex
100
AcDb2dVertex
 10
138.500885
 20
166.228531
 30
0.0
  0
VERTEX
  5
6B5
100
AcDbEntity
  8
0
100
AcDbVertex
100
AcDb2dVertex
 10
138.464188
 20
166.522797
 30
0.0
  0
SEQEND
  5
6B6
100
AcDbEntity
  8
0
  0
POLYLINE
  5
6B7
100
AcDbEntity
  8
0
 62
     7
100
AcDb2dPolyline
 66
     1
 10
0.0
 20
0.0
 30
0.0
 71
     6
  0
VERTEX
  5
6B8
100
AcDbEntity
  8
0
100
AcDbVertex
100
AcDb2dVertex
 10
138.464188
 20
166.522797
 30
0.0
  0
VERTEX
  5
6B9
100
AcDbEntity
  8
0
100
AcDbVertex
100
AcDb2dVertex
 10
138.310867
 20
166.877991
 30
0.0
  0
VERTEX
  5
6BA
100
AcDbEntity
  8
0
100
AcDbVertex
100
AcDb2dVertex
 10
138.055603
 20
167.168869
 30
0.0
  0
VERTEX
  5
6BB
100
AcDbEntity
  8
0
100
AcDbVertex
100
AcDb2dVertex
 10
137.725388
 20
167.370926
 30
0.0
  0
VERTEX
  5
6BC
100
AcDbEntity
  8
0
100
AcDbVertex
100
AcDb2dVertex
 10
137.350922
 20
167.469604
 30
0.0
  0
VERTEX
  5
6BD
100
AcDbEntity
  8
0
100
AcDbVertex
100
AcDb2dVertex
 10
137.195862
 20
167.478455
 30
0.0
  0
SEQEND
  5
6BE
100
AcDbEntity
  8
0
  0
POLYLINE
  5
6BF
100
AcDbEntity
  8
0
 62
     7
100
AcDb2dPolyline
 66
     1
 10
0.0
 20
0.0
 30
0.0
 71
     7
  0
VERTEX
  5
6C0
100
AcDbEntity
  8
0
100
AcDbVertex
100
AcDb2dVertex
 10
137.195862
 20
167.478455
 30
0.0
  0
VERTEX
  5
6C1
100
AcDbEntity
  8
0
100
AcDbVertex
100
AcDb2dVertex
 10
136.757767
 20
167.405914
 30
0.0
  0
VERTEX
  5
6C2
100
AcDbEntity
  8
0
100
AcDbVertex
100
AcDb2dVertex
 10
136.367508
 20
167.194366
 30
0.0
  0
VERTEX
  5
6C3
100
AcDbEntity
  8
0
100
AcDbVertex
100
AcDb2dVertex
 10
136.112656
 20
166.925629
 30
0.0
  0
VERTEX
  5
6C4
100
AcDbEntity
  8
0
100
AcDbVertex
100
AcDb2dVertex
 10
135.947891
 20
166.594086
 30
0.0
  0
VERTEX
  5
6C5
100
AcDbEntity
  8
0
100
AcDbVertex
100
AcDb2dVertex
 10
135.890823
 20
166.228378
 30
0.0
  0
VERTEX
  5
6C6
100
AcDbEntity
  8
0
100
AcDbVertex
100
AcDb2dVertex
 10
135.927505
 20
165.934113
 30
0.0
  0
SEQEND
  5
6C7
100
AcDbEntity
  8
0
  0
ARC
  5
6C8
100
AcDbEntity
  8
0
 62
     7
100
AcDbCircle
 10
113.903358
 20
155.96579
 30
0.0
 40
1.324574
210
0.0
220
0.0
230
1.0
100
AcDbArc
 50
217.83494
 51
270.393505
  0
POLYLINE
  5
6C9
100
AcDbEntity
  8
0
 62
     7
100
AcDb2dPolyline
 66
     1
 10
0.0
 20
0.0
 30
0.0
 71
     8
  0
VERTEX
  5
6CA
100
AcDbEntity
  8
0
100
AcDbVertex
100
AcDb2dVertex
 10
113.91246
 20
154.640625
 30
0.0
  0
VERTEX
  5
6CB
100
AcDbEntity
  8
0
100
AcDbVertex
100
AcDb2dVertex
 10
114.346657
 20
154.711975
 30
0.0
  0
VERTEX
  5
6CC
100
AcDbEntity
  8
0
100
AcDbVertex
100
AcDb2dVertex
 10
114.734299
 20
154.919952
 30
0.0
  0
VERTEX
  5
6CD
100
AcDbEntity
  8
0
100
AcDbVertex
100
AcDb2dVertex
 10
115.029846
 20
155.245529
 30
0.0
  0
VERTEX
  5
6CE
100
AcDbEntity
  8
0
100
AcDbVertex
100
AcDb2dVertex
 10
115.176582
 20
155.581741
 30
0.0
  0
VERTEX
  5
6CF
100
AcDbEntity
  8
0
100
AcDbVertex
100
AcDb2dVertex
 10
115.215759
 20
155.946426
 30
0.0
  0
VERTEX
  5
6D0
100
AcDbEntity
  8
0
100
AcDbVertex
100
AcDb2dVertex
 10
115.142914
 20
156.305939
 30
0.0
  0
VERTEX
  5
6D1
100
AcDbEntity
  8
0
100
AcDbVertex
100
AcDb2dVertex
 10
114.966209
 20
156.627457
 30
0.0
  0
SEQEND
  5
6D2
100
AcDbEntity
  8
0
  0
ARC
  5
6D3
100
AcDbEntity
  8
0
 62
     7
100
AcDbCircle
 10
113.920677
 20
155.81543
 30
0.0
 40
1.324574
210
0.0
220
0.0
230
1.0
100
AcDbArc
 50
37.834938
 51
90.39351
  0
POLYLINE
  5
6D4
100
AcDbEntity
  8
0
 62
     7
100
AcDb2dPolyline
 66
     1
 10
0.0
 20
0.0
 30
0.0
 71
     8
  0
VERTEX
  5
6D5
100
AcDbEntity
  8
0
100
AcDbVertex
100
AcDb2dVertex
 10
113.911575
 20
157.14061
 30
0.0
  0
VERTEX
  5
6D6
100
AcDbEntity
  8
0
100
AcDbVertex
100
AcDb2dVertex
 10
113.477379
 20
157.06926
 30
0.0
  0
VERTEX
  5
6D7
100
AcDbEntity
  8
0
100
AcDbVertex
100
AcDb2dVertex
 10
113.089737
 20
156.861267
 30
0.0
  0
VERTEX
  5
6D8
100
AcDbEntity
  8
0
100
AcDbVertex
100
AcDb2dVertex
 10
112.794189
 20
156.535706
 30
0.0
  0
VERTEX
  5
6D9
100
AcDbEntity
  8
0
100
AcDbVertex
100
AcDb2dVertex
 10
112.647453
 20
156.199493
 30
0.0
  0
VERTEX
  5
6DA
100
AcDbEntity
  8
0
100
AcDbVertex
100
AcDb2dVertex
 10
112.608276
 20
155.834808
 30
0.0
  0
VERTEX
  5
6DB
100
AcDbEntity
  8
0
100
AcDbVertex
100
AcDb2dVertex
 10
112.681122
 20
155.475296
 30
0.0
  0
VERTEX
  5
6DC
100
AcDbEntity
  8
0
100
AcDbVertex
100
AcDb2dVertex
 10
112.857819
 20
155.153778
 30
0.0
  0
SEQEND
  5
6DD
100
AcDbEntity
  8
0
  0
POLYLINE
  5
6DE
100
AcDbEntity
  8
0
 62
     7
100
AcDb2dPolyline
 66
     1
 10
0.0
 20
0.0
 30
0.0
 71
     5
  0
VERTEX
  5
6DF
100
AcDbEntity
  8
0
100
AcDbVertex
100
AcDb2dVertex
 10
182.491241
 20
34.555321
 30
0.0
  0
VERTEX
  5
6E0
100
AcDbEntity
  8
0
100
AcDbVertex
100
AcDb2dVertex
 10
182.293365
 20
34.885262
 30
0.0
  0
VERTEX
  5
6E1
100
AcDbEntity
  8
0
100
AcDbVertex
100
AcDb2dVertex
 10
182.005096
 20
35.140266
 30
0.0
  0
VERTEX
  5
6E2
100
AcDbEntity
  8
0
100
AcDbVertex
100
AcDb2dVertex
 10
181.655029
 20
35.300415
 30
0.0
  0
VERTEX
  5
6E3
100
AcDbEntity
  8
0
100
AcDbVertex
100
AcDb2dVertex
 10
181.273849
 20
35.354927
 30
0.0
  0
SEQEND
  5
6E4
100
AcDbEntity
  8
0
  0
POLYLINE
  5
6E5
100
AcDbEntity
  8
0
 62
     7
100
AcDb2dPolyline
 66
     1
 10
0.0
 20
0.0
 30
0.0
 71
     8
  0
VERTEX
  5
6E6
100
AcDbEntity
  8
0
100
AcDbVertex
100
AcDb2dVertex
 10
181.273849
 20
35.354927
 30
0.0
  0
VERTEX
  5
6E7
100
AcDbEntity
  8
0
100
AcDbVertex
100
AcDb2dVertex
 10
180.833099
 20
35.281479
 30
0.0
  0
VERTEX
  5
6E8
100
AcDbEntity
  8
0
100
AcDbVertex
100
AcDb2dVertex
 10
180.44104
 20
35.067322
 30
0.0
  0
VERTEX
  5
6E9
100
AcDbEntity
  8
0
100
AcDbVertex
100
AcDb2dVertex
 10
180.186066
 20
34.795509
 30
0.0
  0
VERTEX
  5
6EA
100
AcDbEntity
  8
0
100
AcDbVertex
100
AcDb2dVertex
 10
180.022766
 20
34.460632
 30
0.0
  0
VERTEX
  5
6EB
100
AcDbEntity
  8
0
100
AcDbVertex
100
AcDb2dVertex
 10
179.968887
 20
34.092049
 30
0.0
  0
VERTEX
  5
6EC
100
AcDbEntity
  8
0
100
AcDbVertex
100
AcDb2dVertex
 10
180.030655
 20
33.724724
 30
0.0
  0
VERTEX
  5
6ED
100
AcDbEntity
  8
0
100
AcDbVertex
100
AcDb2dVertex
 10
180.056473
 20
33.654533
 30
0.0
  0
SEQEND
  5
6EE
100
AcDbEntity
  8
0
  0
POLYLINE
  5
6EF
100
AcDbEntity
  8
0
 62
     7
100
AcDb2dPolyline
 66
     1
 10
0.0
 20
0.0
 30
0.0
 71
     5
  0
VERTEX
  5
6F0
100
AcDbEntity
  8
0
100
AcDbVertex
100
AcDb2dVertex
 10
180.056473
 20
33.654533
 30
0.0
  0
VERTEX
  5
6F1
100
AcDbEntity
  8
0
100
AcDbVertex
100
AcDb2dVertex
 10
180.254349
 20
33.324593
 30
0.0
  0
VERTEX
  5
6F2
100
AcDbEntity
  8
0
100
AcDbVertex
100
AcDb2dVertex
 10
180.542603
 20
33.069588
 30
0.0
  0
VERTEX
  5
6F3
100
AcDbEntity
  8
0
100
AcDbVertex
100
AcDb2dVertex
 10
180.892685
 20
32.909439
 30
0.0
  0
VERTEX
  5
6F4
100
AcDbEntity
  8
0
100
AcDbVertex
100
AcDb2dVertex
 10
181.273849
 20
32.854927
 30
0.0
  0
SEQEND
  5
6F5
100
AcDbEntity
  8
0
  0
POLYLINE
  5
6F6
100
AcDbEntity
  8
0
 62
     7
100
AcDb2dPolyline
 66
     1
 10
0.0
 20
0.0
 30
0.0
 71
     8
  0
VERTEX
  5
6F7
100
AcDbEntity
  8
0
100
AcDbVertex
100
AcDb2dVertex
 10
181.273849
 20
32.854927
 30
0.0
  0
VERTEX
  5
6F8
100
AcDbEntity
  8
0
100
AcDbVertex
100
AcDb2dVertex
 10
181.7146
 20
32.928375
 30
0.0
  0
VERTEX
  5
6F9
100
AcDbEntity
  8
0
100
AcDbVertex
100
AcDb2dVertex
 10
182.106659
 20
33.14254
 30
0.0
  0
VERTEX
  5
6FA
100
AcDbEntity
  8
0
100
AcDbVertex
100
AcDb2dVertex
 10
182.361633
 20
33.414345
 30
0.0
  0
VERTEX
  5
6FB
100
AcDbEntity
  8
0
100
AcDbVertex
100
AcDb2dVertex
 10
182.524933
 20
33.749222
 30
0.0
  0
VERTEX
  5
6FC
100
AcDbEntity
  8
0
100
AcDbVertex
100
AcDb2dVertex
 10
182.578827
 20
34.117805
 30
0.0
  0
VERTEX
  5
6FD
100
AcDbEntity
  8
0
100
AcDbVertex
100
AcDb2dVertex
 10
182.517059
 20
34.48513
 30
0.0
  0
VERTEX
  5
6FE
100
AcDbEntity
  8
0
100
AcDbVertex
100
AcDb2dVertex
 10
182.491241
 20
34.555321
 30
0.0
  0
SEQEND
  5
6FF
100
AcDbEntity
  8
0
  0
POLYLINE
  5
700
100
AcDbEntity
  8
0
 62
     7
100
AcDb2dPolyline
 66
     1
 10
0.0
 20
0.0
 30
0.0
 71
     6
  0
VERTEX
  5
701
100
AcDbEntity
  8
0
100
AcDbVertex
100
AcDb2dVertex
 10
162.440369
 20
29.566353
 30
0.0
  0
VERTEX
  5
702
100
AcDbEntity
  8
0
100
AcDbVertex
100
AcDb2dVertex
 10
162.341934
 20
29.926277
 30
0.0
  0
VERTEX
  5
703
100
AcDbEntity
  8
0
100
AcDbVertex
100
AcDb2dVertex
 10
162.139557
 20
30.239899
 30
0.0
  0
VERTEX
  5
704
100
AcDbEntity
  8
0
100
AcDbVertex
100
AcDb2dVertex
 10
161.789673
 20
30.518707
 30
0.0
  0
VERTEX
  5
705
100
AcDbEntity
  8
0
100
AcDbVertex
100
AcDb2dVertex
 10
161.366562
 20
30.664574
 30
0.0
  0
VERTEX
  5
706
100
AcDbEntity
  8
0
100
AcDbVertex
100
AcDb2dVertex
 10
161.142761
 20
30.68309
 30
0.0
  0
SEQEND
  5
707
100
AcDbEntity
  8
0
  0
POLYLINE
  5
708
100
AcDbEntity
  8
0
 62
     7
100
AcDb2dPolyline
 66
     1
 10
0.0
 20
0.0
 30
0.0
 71
     7
  0
VERTEX
  5
709
100
AcDbEntity
  8
0
100
AcDbVertex
100
AcDb2dVertex
 10
161.142761
 20
30.68309
 30
0.0
  0
VERTEX
  5
70A
100
AcDbEntity
  8
0
100
AcDbVertex
100
AcDb2dVertex
 10
160.692688
 20
30.606407
 30
0.0
  0
VERTEX
  5
70B
100
AcDbEntity
  8
0
100
AcDbVertex
100
AcDb2dVertex
 10
160.355194
 20
30.42981
 30
0.0
  0
VERTEX
  5
70C
100
AcDbEntity
  8
0
100
AcDbVertex
100
AcDb2dVertex
 10
160.083389
 20
30.163078
 30
0.0
  0
VERTEX
  5
70D
100
AcDbEntity
  8
0
100
AcDbVertex
100
AcDb2dVertex
 10
159.904282
 20
29.827164
 30
0.0
  0
VERTEX
  5
70E
100
AcDbEntity
  8
0
100
AcDbVertex
100
AcDb2dVertex
 10
159.837891
 20
29.452438
 30
0.0
  0
VERTEX
  5
70F
100
AcDbEntity
  8
0
100
AcDbVertex
100
AcDb2dVertex
 10
159.845169
 20
29.299835
 30
0.0
  0
SEQEND
  5
710
100
AcDbEntity
  8
0
  0
POLYLINE
  5
711
100
AcDbEntity
  8
0
 62
     7
100
AcDb2dPolyline
 66
     1
 10
0.0
 20
0.0
 30
0.0
 71
     6
  0
VERTEX
  5
712
100
AcDbEntity
  8
0
100
AcDbVertex
100
AcDb2dVertex
 10
159.845169
 20
29.299835
 30
0.0
  0
VERTEX
  5
713
100
AcDbEntity
  8
0
100
AcDbVertex
100
AcDb2dVertex
 10
159.943604
 20
28.939903
 30
0.0
  0
VERTEX
  5
714
100
AcDbEntity
  8
0
100
AcDbVertex
100
AcDb2dVertex
 10
160.145966
 20
28.626282
 30
0.0
  0
VERTEX
  5
715
100
AcDbEntity
  8
0
100
AcDbVertex
100
AcDb2dVertex
 10
160.49585
 20
28.347481
 30
0.0
  0
VERTEX
  5
716
100
AcDbEntity
  8
0
100
AcDbVertex
100
AcDb2dVertex
 10
160.918976
 20
28.201607
 30
0.0
  0
VERTEX
  5
717
100
AcDbEntity
  8
0
100
AcDbVertex
100
AcDb2dVertex
 10
161.142761
 20
28.183098
 30
0.0
  0
SEQEND
  5
718
100
AcDbEntity
  8
0
  0
POLYLINE
  5
719
100
AcDbEntity
  8
0
 62
     7
100
AcDb2dPolyline
 66
     1
 10
0.0
 20
0.0
 30
0.0
 71
     7
  0
VERTEX
  5
71A
100
AcDbEntity
  8
0
100
AcDbVertex
100
AcDb2dVertex
 10
161.142761
 20
28.183098
 30
0.0
  0
VERTEX
  5
71B
100
AcDbEntity
  8
0
100
AcDbVertex
100
AcDb2dVertex
 10
161.592834
 20
28.259781
 30
0.0
  0
VERTEX
  5
71C
100
AcDbEntity
  8
0
100
AcDbVertex
100
AcDb2dVertex
 10
161.930328
 20
28.436371
 30
0.0
  0
VERTEX
  5
71D
100
AcDbEntity
  8
0
100
AcDbVertex
100
AcDb2dVertex
 10
162.202148
 20
28.70311
 30
0.0
  0
VERTEX
  5
71E
100
AcDbEntity
  8
0
100
AcDbVertex
100
AcDb2dVertex
 10
162.381256
 20
29.039017
 30
0.0
  0
VERTEX
  5
71F
100
AcDbEntity
  8
0
100
AcDbVertex
100
AcDb2dVertex
 10
162.447647
 20
29.41375
 30
0.0
  0
VERTEX
  5
720
100
AcDbEntity
  8
0
100
AcDbVertex
100
AcDb2dVertex
 10
162.440369
 20
29.566353
 30
0.0
  0
SEQEND
  5
721
100
AcDbEntity
  8
0
  0
ARC
  5
722
100
AcDbEntity
  8
0
 62
     7
100
AcDbCircle
 10
214.455322
 20
57.203556
 30
0.0
 40
1.341397
210
0.0
220
0.0
230
1.0
100
AcDbArc
 50
52.541114
 51
90.147842
  0
POLYLINE
  5
723
100
AcDbEntity
  8
0
 62
     7
100
AcDb2dPolyline
 66
     1
 10
0.0
 20
0.0
 30
0.0
 71
     9
  0
VERTEX
  5
724
100
AcDbEntity
  8
0
100
AcDbVertex
100
AcDb2dVertex
 10
214.451859
 20
58.545113
 30
0.0
  0
VERTEX
  5
725
100
AcDbEntity
  8
0
100
AcDbVertex
100
AcDb2dVertex
 10
214.055893
 20
58.486187
 30
0.0
  0
VERTEX
  5
726
100
AcDbEntity
  8
0
100
AcDbVertex
100
AcDb2dVertex
 10
213.694901
 20
58.313362
 30
0.0
  0
VERTEX
  5
727
100
AcDbEntity
  8
0
100
AcDbVertex
100
AcDb2dVertex
 10
213.403351
 20
58.03936
 30
0.0
  0
VERTEX
  5
728
100
AcDbEntity
  8
0
100
AcDbVertex
100
AcDb2dVertex
 10
213.21286
 20
57.687695
 30
0.0
  0
VERTEX
  5
729
100
AcDbEntity
  8
0
100
AcDbVertex
100
AcDb2dVertex
 10
213.14682
 20
57.293381
 30
0.0
  0
VERTEX
  5
72A
100
AcDbEntity
  8
0
100
AcDbVertex
100
AcDb2dVertex
 10
213.213989
 20
56.899254
 30
0.0
  0
VERTEX
  5
72B
100
AcDbEntity
  8
0
100
AcDbVertex
100
AcDb2dVertex
 10
213.405472
 20
56.54813
 30
0.0
  0
VERTEX
  5
72C
100
AcDbEntity
  8
0
100
AcDbVertex
100
AcDb2dVertex
 10
213.63269
 20
56.322041
 30
0.0
  0
SEQEND
  5
72D
100
AcDbEntity
  8
0
  0
ARC
  5
72E
100
AcDbEntity
  8
0
 62
     7
100
AcDbCircle
 10
214.448395
 20
57.386703
 30
0.0
 40
1.341425
210
0.0
220
0.0
230
1.0
100
AcDbArc
 50
232.54225
 51
270.148185
  0
POLYLINE
  5
72F
100
AcDbEntity
  8
0
 62
     7
100
AcDb2dPolyline
 66
     1
 10
0.0
 20
0.0
 30
0.0
 71
     9
  0
VERTEX
  5
730
100
AcDbEntity
  8
0
100
AcDbVertex
100
AcDb2dVertex
 10
214.451859
 20
56.045113
 30
0.0
  0
VERTEX
  5
731
100
AcDbEntity
  8
0
100
AcDbVertex
100
AcDb2dVertex
 10
214.89151
 20
56.118183
 30
0.0
  0
VERTEX
  5
732
100
AcDbEntity
  8
0
100
AcDbVertex
100
AcDb2dVertex
 10
215.282776
 20
56.331234
 30
0.0
  0
VERTEX
  5
733
100
AcDbEntity
  8
0
100
AcDbVertex
100
AcDb2dVertex
 10
215.53772
 20
56.601749
 30
0.0
  0
VERTEX
  5
734
100
AcDbEntity
  8
0
100
AcDbVertex
100
AcDb2dVertex
 10
215.70163
 20
56.935234
 30
0.0
  0
VERTEX
  5
735
100
AcDbEntity
  8
0
100
AcDbVertex
100
AcDb2dVertex
 10
215.756866
 20
57.302586
 30
0.0
  0
VERTEX
  5
736
100
AcDbEntity
  8
0
100
AcDbVertex
100
AcDb2dVertex
 10
215.697083
 20
57.669228
 30
0.0
  0
VERTEX
  5
737
100
AcDbEntity
  8
0
100
AcDbVertex
100
AcDb2dVertex
 10
215.529114
 20
58.000694
 30
0.0
  0
VERTEX
  5
738
100
AcDbEntity
  8
0
100
AcDbVertex
100
AcDb2dVertex
 10
215.271027
 20
58.268188
 30
0.0
  0
SEQEND
  5
739
100
AcDbEntity
  8
0
  0
ARC
  5
73A
100
AcDbEntity
  8
0
 62
     7
100
AcDbCircle
 10
74.288757
 20
116.843407
 30
0.0
 40
1.361189
210
0.0
220
0.0
230
1.0
100
AcDbArc
 50
261.491344
 51
270.002477
  0
POLYLINE
  5
73B
100
AcDbEntity
  8
0
 62
     7
100
AcDb2dPolyline
 66
     1
 10
0.0
 20
0.0
 30
0.0
 71
    11
  0
VERTEX
  5
73C
100
AcDbEntity
  8
0
100
AcDbVertex
100
AcDb2dVertex
 10
74.288818
 20
115.482216
 30
0.0
  0
VERTEX
  5
73D
100
AcDbEntity
  8
0
100
AcDbVertex
100
AcDb2dVertex
 10
74.721062
 20
115.552765
 30
0.0
  0
VERTEX
  5
73E
100
AcDbEntity
  8
0
100
AcDbVertex
100
AcDb2dVertex
 10
75.107399
 20
115.75869
 30
0.0
  0
VERTEX
  5
73F
100
AcDbEntity
  8
0
100
AcDbVertex
100
AcDb2dVertex
 10
75.403023
 20
116.081398
 30
0.0
  0
VERTEX
  5
740
100
AcDbEntity
  8
0
100
AcDbVertex
100
AcDb2dVertex
 10
75.551163
 20
116.415108
 30
0.0
  0
VERTEX
  5
741
100
AcDbEntity
  8
0
100
AcDbVertex
100
AcDb2dVertex
 10
75.592995
 20
116.777718
 30
0.0
  0
VERTEX
  5
742
100
AcDbEntity
  8
0
100
AcDbVertex
100
AcDb2dVertex
 10
75.523834
 20
117.136177
 30
0.0
  0
VERTEX
  5
743
100
AcDbEntity
  8
0
100
AcDbVertex
100
AcDb2dVertex
 10
75.30587
 20
117.515488
 30
0.0
  0
VERTEX
  5
744
100
AcDbEntity
  8
0
100
AcDbVertex
100
AcDb2dVertex
 10
74.971291
 20
117.797668
 30
0.0
  0
VERTEX
  5
745
100
AcDbEntity
  8
0
100
AcDbVertex
100
AcDb2dVertex
 10
74.562447
 20
117.95443
 30
0.0
  0
VERTEX
  5
746
100
AcDbEntity
  8
0
100
AcDbVertex
100
AcDb2dVertex
 10
74.49028
 20
117.967232
 30
0.0
  0
SEQEND
  5
747
100
AcDbEntity
  8
0
  0
ARC
  5
748
100
AcDbEntity
  8
0
 62
     7
100
AcDbCircle
 10
74.288879
 20
116.621025
 30
0.0
 40
1.361189
210
0.0
220
0.0
230
1.0
100
AcDbArc
 50
81.491342
 51
90.002475
  0
POLYLINE
  5
749
100
AcDbEntity
  8
0
 62
     7
100
AcDb2dPolyline
 66
     1
 10
0.0
 20
0.0
 30
0.0
 71
    11
  0
VERTEX
  5
74A
100
AcDbEntity
  8
0
100
AcDbVertex
100
AcDb2dVertex
 10
74.288826
 20
117.982216
 30
0.0
  0
VERTEX
  5
74B
100
AcDbEntity
  8
0
100
AcDbVertex
100
AcDb2dVertex
 10
73.856583
 20
117.911659
 30
0.0
  0
VERTEX
  5
74C
100
AcDbEntity
  8
0
100
AcDbVertex
100
AcDb2dVertex
 10
73.470238
 20
117.705734
 30
0.0
  0
VERTEX
  5
74D
100
AcDbEntity
  8
0
100
AcDbVertex
100
AcDb2dVertex
 10
73.174622
 20
117.383026
 30
0.0
  0
VERTEX
  5
74E
100
AcDbEntity
  8
0
100
AcDbVertex
100
AcDb2dVertex
 10
73.026474
 20
117.049316
 30
0.0
  0
VERTEX
  5
74F
100
AcDbEntity
  8
0
100
AcDbVertex
100
AcDb2dVertex
 10
72.98465
 20
116.686714
 30
0.0
  0
VERTEX
  5
750
100
AcDbEntity
  8
0
100
AcDbVertex
100
AcDb2dVertex
 10
73.05381
 20
116.328255
 30
0.0
  0
VERTEX
  5
751
100
AcDbEntity
  8
0
100
AcDbVertex
100
AcDb2dVertex
 10
73.271774
 20
115.948936
 30
0.0
  0
VERTEX
  5
752
100
AcDbEntity
  8
0
100
AcDbVertex
100
AcDb2dVertex
 10
73.606346
 20
115.666763
 30
0.0
  0
VERTEX
  5
753
100
AcDbEntity
  8
0
100
AcDbVertex
100
AcDb2dVertex
 10
74.015198
 20
115.509995
 30
0.0
  0
VERTEX
  5
754
100
AcDbEntity
  8
0
100
AcDbVertex
100
AcDb2dVertex
 10
74.087357
 20
115.4972
 30
0.0
  0
SEQEND
  5
755
100
AcDbEntity
  8
0
  0
ARC
  5
756
100
AcDbEntity
  8
0
 62
     7
100
AcDbCircle
 10
80.129463
 20
135.871063
 30
0.0
 40
1.354134
210
0.0
220
0.0
230
1.0
100
AcDbArc
 50
247.073846
 51
270.03505
  0
POLYLINE
  5
757
100
AcDbEntity
  8
0
 62
     7
100
AcDb2dPolyline
 66
     1
 10
0.0
 20
0.0
 30
0.0
 71
    10
  0
VERTEX
  5
758
100
AcDbEntity
  8
0
100
AcDbVertex
100
AcDb2dVertex
 10
80.130295
 20
134.516907
 30
0.0
  0
VERTEX
  5
759
100
AcDbEntity
  8
0
100
AcDbVertex
100
AcDb2dVertex
 10
80.528038
 20
134.576385
 30
0.0
  0
VERTEX
  5
75A
100
AcDbEntity
  8
0
100
AcDbVertex
100
AcDb2dVertex
 10
80.890381
 20
134.750809
 30
0.0
  0
VERTEX
  5
75B
100
AcDbEntity
  8
0
100
AcDbVertex
100
AcDb2dVertex
 10
81.182281
 20
135.027176
 30
0.0
  0
VERTEX
  5
75C
100
AcDbEntity
  8
0
100
AcDbVertex
100
AcDb2dVertex
 10
81.37175
 20
135.3815
 30
0.0
  0
VERTEX
  5
75D
100
AcDbEntity
  8
0
100
AcDbVertex
100
AcDb2dVertex
 10
81.43528
 20
135.778168
 30
0.0
  0
VERTEX
  5
75E
100
AcDbEntity
  8
0
100
AcDbVertex
100
AcDb2dVertex
 10
81.364342
 20
136.173538
 30
0.0
  0
VERTEX
  5
75F
100
AcDbEntity
  8
0
100
AcDbVertex
100
AcDb2dVertex
 10
81.168442
 20
136.524353
 30
0.0
  0
VERTEX
  5
760
100
AcDbEntity
  8
0
100
AcDbVertex
100
AcDb2dVertex
 10
80.871727
 20
136.795578
 30
0.0
  0
VERTEX
  5
761
100
AcDbEntity
  8
0
100
AcDbVertex
100
AcDb2dVertex
 10
80.658607
 20
136.909897
 30
0.0
  0
SEQEND
  5
762
100
AcDbEntity
  8
0
  0
ARC
  5
763
100
AcDbEntity
  8
0
 62
     7
100
AcDbCircle
 10
80.131119
 20
135.66275
 30
0.0
 40
1.354134
210
0.0
220
0.0
230
1.0
100
AcDbArc
 50
67.073844
 51
90.035048
  0
POLYLINE
  5
764
100
AcDbEntity
  8
0
 62
     7
100
AcDb2dPolyline
 66
     1
 10
0.0
 20
0.0
 30
0.0
 71
    10
  0
VERTEX
  5
765
100
AcDbEntity
  8
0
100
AcDbVertex
100
AcDb2dVertex
 10
80.130295
 20
137.016907
 30
0.0
  0
VERTEX
  5
766
100
AcDbEntity
  8
0
100
AcDbVertex
100
AcDb2dVertex
 10
79.694946
 20
136.945313
 30
0.0
  0
VERTEX
  5
767
100
AcDbEntity
  8
0
100
AcDbVertex
100
AcDb2dVertex
 10
79.306442
 20
136.736343
 30
0.0
  0
VERTEX
  5
768
100
AcDbEntity
  8
0
100
AcDbVertex
100
AcDb2dVertex
 10
79.01078
 20
136.409302
 30
0.0
  0
VERTEX
  5
769
100
AcDbEntity
  8
0
100
AcDbVertex
100
AcDb2dVertex
 10
78.864655
 20
136.071732
 30
0.0
  0
VERTEX
  5
76A
100
AcDbEntity
  8
0
100
AcDbVertex
100
AcDb2dVertex
 10
78.826813
 20
135.705872
 30
0.0
  0
VERTEX
  5
76B
100
AcDbEntity
  8
0
100
AcDbVertex
100
AcDb2dVertex
 10
78.901558
 20
135.345764
 30
0.0
  0
VERTEX
  5
76C
100
AcDbEntity
  8
0
100
AcDbVertex
100
AcDb2dVertex
 10
79.08049
 20
135.024323
 30
0.0
  0
VERTEX
  5
76D
100
AcDbEntity
  8
0
100
AcDbVertex
100
AcDb2dVertex
 10
79.406136
 20
134.727005
 30
0.0
  0
VERTEX
  5
76E
100
AcDbEntity
  8
0
100
AcDbVertex
100
AcDb2dVertex
 10
79.601974
 20
134.623917
 30
0.0
  0
SEQEND
  5
76F
100
AcDbEntity
  8
0
  0
ARC
  5
770
100
AcDbEntity
  8
0
 62
     7
100
AcDbCircle
 10
199.465256
 20
43.532963
 30
0.0
 40
1.324574
210
0.0
220
0.0
230
1.0
100
AcDbArc
 50
37.834938
 51
90.39351
  0
POLYLINE
  5
771
100
AcDbEntity
  8
0
 62
     7
100
AcDb2dPolyline
 66
     1
 10
0.0
 20
0.0
 30
0.0
 71
     8
  0
VERTEX
  5
772
100
AcDbEntity
  8
0
100
AcDbVertex
100
AcDb2dVertex
 10
199.456146
 20
44.858143
 30
0.0
  0
VERTEX
  5
773
100
AcDbEntity
  8
0
100
AcDbVertex
100
AcDb2dVertex
 10
199.021957
 20
44.786781
 30
0.0
  0
VERTEX
  5
774
100
AcDbEntity
  8
0
100
AcDbVertex
100
AcDb2dVertex
 10
198.634308
 20
44.5788
 30
0.0
  0
VERTEX
  5
775
100
AcDbEntity
  8
0
100
AcDbVertex
100
AcDb2dVertex
 10
198.33876
 20
44.253231
 30
0.0
  0
VERTEX
  5
776
100
AcDbEntity
  8
0
100
AcDbVertex
100
AcDb2dVertex
 10
198.192032
 20
43.917019
 30
0.0
  0
VERTEX
  5
777
100
AcDbEntity
  8
0
100
AcDbVertex
100
AcDb2dVertex
 10
198.152863
 20
43.552334
 30
0.0
  0
VERTEX
  5
778
100
AcDbEntity
  8
0
100
AcDbVertex
100
AcDb2dVertex
 10
198.225693
 20
43.192829
 30
0.0
  0
VERTEX
  5
779
100
AcDbEntity
  8
0
100
AcDbVertex
100
AcDb2dVertex
 10
198.402405
 20
42.871304
 30
0.0
  0
SEQEND
  5
77A
100
AcDbEntity
  8
0
  0
ARC
  5
77B
100
AcDbEntity
  8
0
 62
     7
100
AcDbCircle
 10
199.447937
 20
43.683323
 30
0.0
 40
1.324574
210
0.0
220
0.0
230
1.0
100
AcDbArc
 50
217.83494
 51
270.393505
  0
POLYLINE
  5
77C
100
AcDbEntity
  8
0
 62
     7
100
AcDb2dPolyline
 66
     1
 10
0.0
 20
0.0
 30
0.0
 71
     8
  0
VERTEX
  5
77D
100
AcDbEntity
  8
0
100
AcDbVertex
100
AcDb2dVertex
 10
199.457031
 20
42.358147
 30
0.0
  0
VERTEX
  5
77E
100
AcDbEntity
  8
0
100
AcDbVertex
100
AcDb2dVertex
 10
199.891235
 20
42.429504
 30
0.0
  0
VERTEX
  5
77F
100
AcDbEntity
  8
0
100
AcDbVertex
100
AcDb2dVertex
 10
200.27887
 20
42.637486
 30
0.0
  0
VERTEX
  5
780
100
AcDbEntity
  8
0
100
AcDbVertex
100
AcDb2dVertex
 10
200.574417
 20
42.963058
 30
0.0
  0
VERTEX
  5
781
100
AcDbEntity
  8
0
100
AcDbVertex
100
AcDb2dVertex
 10
200.721161
 20
43.299271
 30
0.0
  0
VERTEX
  5
782
100
AcDbEntity
  8
0
100
AcDbVertex
100
AcDb2dVertex
 10
200.76033
 20
43.663956
 30
0.0
  0
VERTEX
  5
783
100
AcDbEntity
  8
0
100
AcDbVertex
100
AcDb2dVertex
 10
200.687485
 20
44.02346
 30
0.0
  0
VERTEX
  5
784
100
AcDbEntity
  8
0
100
AcDbVertex
100
AcDb2dVertex
 10
200.510788
 20
44.344986
 30
0.0
  0
SEQEND
  5
785
100
AcDbEntity
  8
0
  0
POLYLINE
  5
786
100
AcDbEntity
  8
0
 62
     7
100
AcDb2dPolyline
 66
     1
 10
0.0
 20
0.0
 30
0.0
 71
     6
  0
VERTEX
  5
787
100
AcDbEntity
  8
0
100
AcDbVertex
100
AcDb2dVertex
 10
169.440521
 20
44.065891
 30
0.0
  0
VERTEX
  5
788
100
AcDbEntity
  8
0
100
AcDbVertex
100
AcDb2dVertex
 10
169.287201
 20
44.421082
 30
0.0
  0
VERTEX
  5
789
100
AcDbEntity
  8
0
100
AcDbVertex
100
AcDb2dVertex
 10
169.031921
 20
44.711956
 30
0.0
  0
VERTEX
  5
78A
100
AcDbEntity
  8
0
100
AcDbVertex
100
AcDb2dVertex
 10
168.701721
 20
44.914021
 30
0.0
  0
VERTEX
  5
78B
100
AcDbEntity
  8
0
100
AcDbVertex
100
AcDb2dVertex
 10
168.327255
 20
45.012691
 30
0.0
  0
VERTEX
  5
78C
100
AcDbEntity
  8
0
100
AcDbVertex
100
AcDb2dVertex
 10
168.17218
 20
45.021545
 30
0.0
  0
SEQEND
  5
78D
100
AcDbEntity
  8
0
  0
POLYLINE
  5
78E
100
AcDbEntity
  8
0
 62
     7
100
AcDb2dPolyline
 66
     1
 10
0.0
 20
0.0
 30
0.0
 71
     7
  0
VERTEX
  5
78F
100
AcDbEntity
  8
0
100
AcDbVertex
100
AcDb2dVertex
 10
168.17218
 20
45.021545
 30
0.0
  0
VERTEX
  5
790
100
AcDbEntity
  8
0
100
AcDbVertex
100
AcDb2dVertex
 10
167.7341
 20
44.949009
 30
0.0
  0
VERTEX
  5
791
100
AcDbEntity
  8
0
100
AcDbVertex
100
AcDb2dVertex
 10
167.343842
 20
44.737465
 30
0.0
  0
VERTEX
  5
792
100
AcDbEntity
  8
0
100
AcDbVertex
100
AcDb2dVertex
 10
167.088989
 20
44.468731
 30
0.0
  0
VERTEX
  5
793
100
AcDbEntity
  8
0
100
AcDbVertex
100
AcDb2dVertex
 10
166.924225
 20
44.137177
 30
0.0
  0
VERTEX
  5
794
100
AcDbEntity
  8
0
100
AcDbVertex
100
AcDb2dVertex
 10
166.867157
 20
43.771465
 30
0.0
  0
VERTEX
  5
795
100
AcDbEntity
  8
0
100
AcDbVertex
100
AcDb2dVertex
 10
166.903839
 20
43.4772
 30
0.0
  0
SEQEND
  5
796
100
AcDbEntity
  8
0
  0
POLYLINE
  5
797
100
AcDbEntity
  8
0
 62
     7
100
AcDb2dPolyline
 66
     1
 10
0.0
 20
0.0
 30
0.0
 71
     6
  0
VERTEX
  5
798
100
AcDbEntity
  8
0
100
AcDbVertex
100
AcDb2dVertex
 10
166.903839
 20
43.4772
 30
0.0
  0
VERTEX
  5
799
100
AcDbEntity
  8
0
100
AcDbVertex
100
AcDb2dVertex
 10
167.057175
 20
43.122009
 30
0.0
  0
VERTEX
  5
79A
100
AcDbEntity
  8
0
100
AcDbVertex
100
AcDb2dVertex
 10
167.312439
 20
42.831135
 30
0.0
  0
VERTEX
  5
79B
100
AcDbEntity
  8
0
100
AcDbVertex
100
AcDb2dVertex
 10
167.642654
 20
42.629074
 30
0.0
  0
VERTEX
  5
79C
100
AcDbEntity
  8
0
100
AcDbVertex
100
AcDb2dVertex
 10
168.01712
 20
42.530403
 30
0.0
  0
VERTEX
  5
79D
100
AcDbEntity
  8
0
100
AcDbVertex
100
AcDb2dVertex
 10
168.17218
 20
42.521545
 30
0.0
  0
SEQEND
  5
79E
100
AcDbEntity
  8
0
  0
POLYLINE
  5
79F
100
AcDbEntity
  8
0
 62
     7
100
AcDb2dPolyline
 66
     1
 10
0.0
 20
0.0
 30
0.0
 71
     7
  0
VERTEX
  5
7A0
100
AcDbEntity
  8
0
100
AcDbVertex
100
AcDb2dVertex
 10
168.17218
 20
42.521545
 30
0.0
  0
VERTEX
  5
7A1
100
AcDbEntity
  8
0
100
AcDbVertex
100
AcDb2dVertex
 10
168.610275
 20
42.594082
 30
0.0
  0
VERTEX
  5
7A2
100
AcDbEntity
  8
0
100
AcDbVertex
100
AcDb2dVertex
 10
169.000534
 20
42.805626
 30
0.0
  0
VERTEX
  5
7A3
100
AcDbEntity
  8
0
100
AcDbVertex
100
AcDb2dVertex
 10
169.255371
 20
43.074364
 30
0.0
  0
VERTEX
  5
7A4
100
AcDbEntity
  8
0
100
AcDbVertex
100
AcDb2dVertex
 10
169.420151
 20
43.405918
 30
0.0
  0
VERTEX
  5
7A5
100
AcDbEntity
  8
0
100
AcDbVertex
100
AcDb2dVertex
 10
169.477219
 20
43.771626
 30
0.0
  0
VERTEX
  5
7A6
100
AcDbEntity
  8
0
100
AcDbVertex
100
AcDb2dVertex
 10
169.440521
 20
44.065891
 30
0.0
  0
SEQEND
  5
7A7
100
AcDbEntity
  8
0
  0
ARC
  5
7A8
100
AcDbEntity
  8
0
 62
     7
100
AcDbCircle
 10
191.464661
 20
54.034237
 30
0.0
 40
1.32455
210
0.0
220
0.0
230
1.0
100
AcDbArc
 50
37.833511
 51
90.393053
  0
POLYLINE
  5
7A9
100
AcDbEntity
  8
0
 62
     7
100
AcDb2dPolyline
 66
     1
 10
0.0
 20
0.0
 30
0.0
 71
     8
  0
VERTEX
  5
7AA
100
AcDbEntity
  8
0
100
AcDbVertex
100
AcDb2dVertex
 10
191.455582
 20
55.359379
 30
0.0
  0
VERTEX
  5
7AB
100
AcDbEntity
  8
0
100
AcDbVertex
100
AcDb2dVertex
 10
191.061462
 20
55.30088
 30
0.0
  0
VERTEX
  5
7AC
100
AcDbEntity
  8
0
100
AcDbVertex
100
AcDb2dVertex
 10
190.701843
 20
55.129513
 30
0.0
  0
VERTEX
  5
7AD
100
AcDbEntity
  8
0
100
AcDbVertex
100
AcDb2dVertex
 10
190.410721
 20
54.857758
 30
0.0
  0
VERTEX
  5
7AE
100
AcDbEntity
  8
0
100
AcDbVertex
100
AcDb2dVertex
 10
190.219376
 20
54.508705
 30
0.0
  0
VERTEX
  5
7AF
100
AcDbEntity
  8
0
100
AcDbVertex
100
AcDb2dVertex
 10
190.151001
 20
54.11668
 30
0.0
  0
VERTEX
  5
7B0
100
AcDbEntity
  8
0
100
AcDbVertex
100
AcDb2dVertex
 10
190.214615
 20
53.723827
 30
0.0
  0
VERTEX
  5
7B1
100
AcDbEntity
  8
0
100
AcDbVertex
100
AcDb2dVertex
 10
190.401825
 20
53.37254
 30
0.0
  0
SEQEND
  5
7B2
100
AcDbEntity
  8
0
  0
ARC
  5
7B3
100
AcDbEntity
  8
0
 62
     7
100
AcDbCircle
 10
191.447357
 20
54.184563
 30
0.0
 40
1.324574
210
0.0
220
0.0
230
1.0
100
AcDbArc
 50
217.83494
 51
270.393505
  0
POLYLINE
  5
7B4
100
AcDbEntity
  8
0
 62
     7
100
AcDb2dPolyline
 66
     1
 10
0.0
 20
0.0
 30
0.0
 71
     8
  0
VERTEX
  5
7B5
100
AcDbEntity
  8
0
100
AcDbVertex
100
AcDb2dVertex
 10
191.456467
 20
52.859386
 30
0.0
  0
VERTEX
  5
7B6
100
AcDbEntity
  8
0
100
AcDbVertex
100
AcDb2dVertex
 10
191.890656
 20
52.930744
 30
0.0
  0
VERTEX
  5
7B7
100
AcDbEntity
  8
0
100
AcDbVertex
100
AcDb2dVertex
 10
192.278305
 20
53.138725
 30
0.0
  0
VERTEX
  5
7B8
100
AcDbEntity
  8
0
100
AcDbVertex
100
AcDb2dVertex
 10
192.573853
 20
53.464294
 30
0.0
  0
VERTEX
  5
7B9
100
AcDbEntity
  8
0
100
AcDbVertex
100
AcDb2dVertex
 10
192.720581
 20
53.800507
 30
0.0
  0
VERTEX
  5
7BA
100
AcDbEntity
  8
0
100
AcDbVertex
100
AcDb2dVertex
 10
192.759766
 20
54.165195
 30
0.0
  0
VERTEX
  5
7BB
100
AcDbEntity
  8
0
100
AcDbVertex
100
AcDb2dVertex
 10
192.68692
 20
54.5247
 30
0.0
  0
VERTEX
  5
7BC
100
AcDbEntity
  8
0
100
AcDbVertex
100
AcDb2dVertex
 10
192.510223
 20
54.846226
 30
0.0
  0
SEQEND
  5
7BD
100
AcDbEntity
  8
0
  0
ARC
  5
7BE
100
AcDbEntity
  8
0
 62
     7
100
AcDbCircle
 10
87.698463
 20
114.836578
 30
0.0
 40
1.361189
210
0.0
220
0.0
230
1.0
100
AcDbArc
 50
261.491344
 51
270.002477
  0
POLYLINE
  5
7BF
100
AcDbEntity
  8
0
 62
     7
100
AcDb2dPolyline
 66
     1
 10
0.0
 20
0.0
 30
0.0
 71
    11
  0
VERTEX
  5
7C0
100
AcDbEntity
  8
0
100
AcDbVertex
100
AcDb2dVertex
 10
87.698524
 20
113.475388
 30
0.0
  0
VERTEX
  5
7C1
100
AcDbEntity
  8
0
100
AcDbVertex
100
AcDb2dVertex
 10
88.130768
 20
113.545944
 30
0.0
  0
VERTEX
  5
7C2
100
AcDbEntity
  8
0
100
AcDbVertex
100
AcDb2dVertex
 10
88.517105
 20
113.751869
 30
0.0
  0
VERTEX
  5
7C3
100
AcDbEntity
  8
0
100
AcDbVertex
100
AcDb2dVertex
 10
88.812729
 20
114.07457
 30
0.0
  0
VERTEX
  5
7C4
100
AcDbEntity
  8
0
100
AcDbVertex
100
AcDb2dVertex
 10
88.960869
 20
114.408279
 30
0.0
  0
VERTEX
  5
7C5
100
AcDbEntity
  8
0
100
AcDbVertex
100
AcDb2dVertex
 10
89.002701
 20
114.770889
 30
0.0
  0
VERTEX
  5
7C6
100
AcDbEntity
  8
0
100
AcDbVertex
100
AcDb2dVertex
 10
88.933533
 20
115.129349
 30
0.0
  0
VERTEX
  5
7C7
100
AcDbEntity
  8
0
100
AcDbVertex
100
AcDb2dVertex
 10
88.715576
 20
115.508667
 30
0.0
  0
VERTEX
  5
7C8
100
AcDbEntity
  8
0
100
AcDbVertex
100
AcDb2dVertex
 10
88.380997
 20
115.79084
 30
0.0
  0
VERTEX
  5
7C9
100
AcDbEntity
  8
0
100
AcDbVertex
100
AcDb2dVertex
 10
87.972153
 20
115.947601
 30
0.0
  0
VERTEX
  5
7CA
100
AcDbEntity
  8
0
100
AcDbVertex
100
AcDb2dVertex
 10
87.899986
 20
115.960403
 30
0.0
  0
SEQEND
  5
7CB
100
AcDbEntity
  8
0
  0
ARC
  5
7CC
100
AcDbEntity
  8
0
 62
     7
100
AcDbCircle
 10
87.698586
 20
114.614197
 30
0.0
 40
1.361189
210
0.0
220
0.0
230
1.0
100
AcDbArc
 50
81.491342
 51
90.002475
  0
POLYLINE
  5
7CD
100
AcDbEntity
  8
0
 62
     7
100
AcDb2dPolyline
 66
     1
 10
0.0
 20
0.0
 30
0.0
 71
    11
  0
VERTEX
  5
7CE
100
AcDbEntity
  8
0
100
AcDbVertex
100
AcDb2dVertex
 10
87.698532
 20
115.975388
 30
0.0
  0
VERTEX
  5
7CF
100
AcDbEntity
  8
0
100
AcDbVertex
100
AcDb2dVertex
 10
87.266281
 20
115.904831
 30
0.0
  0
VERTEX
  5
7D0
100
AcDbEntity
  8
0
100
AcDbVertex
100
AcDb2dVertex
 10
86.879944
 20
115.698914
 30
0.0
  0
VERTEX
  5
7D1
100
AcDbEntity
  8
0
100
AcDbVertex
100
AcDb2dVertex
 10
86.58432
 20
115.376205
 30
0.0
  0
VERTEX
  5
7D2
100
AcDbEntity
  8
0
100
AcDbVertex
100
AcDb2dVertex
 10
86.43618
 20
115.042496
 30
0.0
  0
VERTEX
  5
7D3
100
AcDbEntity
  8
0
100
AcDbVertex
100
AcDb2dVertex
 10
86.394356
 20
114.679886
 30
0.0
  0
VERTEX
  5
7D4
100
AcDbEntity
  8
0
100
AcDbVertex
100
AcDb2dVertex
 10
86.463516
 20
114.321426
 30
0.0
  0
VERTEX
  5
7D5
100
AcDbEntity
  8
0
100
AcDbVertex
100
AcDb2dVertex
 10
86.68148
 20
113.942116
 30
0.0
  0
VERTEX
  5
7D6
100
AcDbEntity
  8
0
100
AcDbVertex
100
AcDb2dVertex
 10
87.016052
 20
113.659935
 30
0.0
  0
VERTEX
  5
7D7
100
AcDbEntity
  8
0
100
AcDbVertex
100
AcDb2dVertex
 10
87.424896
 20
113.503174
 30
0.0
  0
VERTEX
  5
7D8
100
AcDbEntity
  8
0
100
AcDbVertex
100
AcDb2dVertex
 10
87.49707
 20
113.490372
 30
0.0
  0
SEQEND
  5
7D9
100
AcDbEntity
  8
0
  0
ARC
  5
7DA
100
AcDbEntity
  8
0
 62
     7
100
AcDbCircle
 10
208.83902
 20
72.09639
 30
0.0
 40
1.348399
210
0.0
220
0.0
230
1.0
100
AcDbArc
 50
59.825975
 51
90.078584
  0
POLYLINE
  5
7DB
100
AcDbEntity
  8
0
 62
     7
100
AcDb2dPolyline
 66
     1
 10
0.0
 20
0.0
 30
0.0
 71
     9
  0
VERTEX
  5
7DC
100
AcDbEntity
  8
0
100
AcDbVertex
100
AcDb2dVertex
 10
208.837173
 20
73.444855
 30
0.0
  0
VERTEX
  5
7DD
100
AcDbEntity
  8
0
100
AcDbVertex
100
AcDb2dVertex
 10
208.404541
 20
73.374168
 30
0.0
  0
VERTEX
  5
7DE
100
AcDbEntity
  8
0
100
AcDbVertex
100
AcDb2dVertex
 10
208.017868
 20
73.167824
 30
0.0
  0
VERTEX
  5
7DF
100
AcDbEntity
  8
0
100
AcDbVertex
100
AcDb2dVertex
 10
207.72226
 20
72.844551
 30
0.0
  0
VERTEX
  5
7E0
100
AcDbEntity
  8
0
100
AcDbVertex
100
AcDb2dVertex
 10
207.574371
 20
72.510315
 30
0.0
  0
VERTEX
  5
7E1
100
AcDbEntity
  8
0
100
AcDbVertex
100
AcDb2dVertex
 10
207.533081
 20
72.147232
 30
0.0
  0
VERTEX
  5
7E2
100
AcDbEntity
  8
0
100
AcDbVertex
100
AcDb2dVertex
 10
207.602997
 20
71.788574
 30
0.0
  0
VERTEX
  5
7E3
100
AcDbEntity
  8
0
100
AcDbVertex
100
AcDb2dVertex
 10
207.822006
 20
71.409348
 30
0.0
  0
VERTEX
  5
7E4
100
AcDbEntity
  8
0
100
AcDbVertex
100
AcDb2dVertex
 10
208.157623
 20
71.127693
 30
0.0
  0
SEQEND
  5
7E5
100
AcDbEntity
  8
0
  0
ARC
  5
7E6
100
AcDbEntity
  8
0
 62
     7
100
AcDbCircle
 10
208.835327
 20
72.29332
 30
0.0
 40
1.348399
210
0.0
220
0.0
230
1.0
100
AcDbArc
 50
239.825977
 51
270.078586
  0
POLYLINE
  5
7E7
100
AcDbEntity
  8
0
 62
     7
100
AcDb2dPolyline
 66
     1
 10
0.0
 20
0.0
 30
0.0
 71
     9
  0
VERTEX
  5
7E8
100
AcDbEntity
  8
0
100
AcDbVertex
100
AcDb2dVertex
 10
208.837173
 20
70.944855
 30
0.0
  0
VERTEX
  5
7E9
100
AcDbEntity
  8
0
100
AcDbVertex
100
AcDb2dVertex
 10
209.269791
 20
71.015533
 30
0.0
  0
VERTEX
  5
7EA
100
AcDbEntity
  8
0
100
AcDbVertex
100
AcDb2dVertex
 10
209.656464
 20
71.221878
 30
0.0
  0
VERTEX
  5
7EB
100
AcDbEntity
  8
0
100
AcDbVertex
100
AcDb2dVertex
 10
209.952072
 20
71.545158
 30
0.0
  0
VERTEX
  5
7EC
100
AcDbEntity
  8
0
100
AcDbVertex
100
AcDb2dVertex
 10
210.099976
 20
71.879395
 30
0.0
  0
VERTEX
  5
7ED
100
AcDbEntity
  8
0
100
AcDbVertex
100
AcDb2dVertex
 10
210.141266
 20
72.242477
 30
0.0
  0
VERTEX
  5
7EE
100
AcDbEntity
  8
0
100
AcDbVertex
100
AcDb2dVertex
 10
210.07135
 20
72.601135
 30
0.0
  0
VERTEX
  5
7EF
100
AcDbEntity
  8
0
100
AcDbVertex
100
AcDb2dVertex
 10
209.852341
 20
72.980362
 30
0.0
  0
VERTEX
  5
7F0
100
AcDbEntity
  8
0
100
AcDbVertex
100
AcDb2dVertex
 10
209.516724
 20
73.262016
 30
0.0
  0
SEQEND
  5
7F1
100
AcDbEntity
  8
0
  0
ELLIPSE
  5
7F2
100
AcDbEntity
  8
0
 62
     7
100
AcDbEllipse
 10
152.684021
 20
105.0
 30
0.0
 11
52.723556518554688
 21
-0.0000381469726563
 31
0.0
210
0.0
220
0.0
230
1.0
 40
0.957826
 41
4.7123794555664062
 42
6.9135932922363281
  0
ELLIPSE
  5
7F3
100
AcDbEntity
  8
0
 62
     7
100
AcDbEllipse
 10
152.683685
 20
104.999535
 30
0.0
 11
52.723159790039063
 21
-0.003387451171875
 31
0.0
210
0.0
220
0.0
230
1.0
 40
0.957824
 41
3.7720623016357422
 42
4.7124462127685547
  0
ELLIPSE
  5
7F4
100
AcDbEntity
  8
0
 62
     7
100
AcDbEllipse
 10
152.683914
 20
104.999626
 30
0.0
 11
52.723739624023438
 21
0.001434326171875
 31
0.0
210
0.0
220
0.0
230
1.0
 40
0.95783
 41
0.6303825974464417
 42
1.5707577466964722
  0
ELLIPSE
  5
7F5
100
AcDbEntity
  8
0
 62
     7
100
AcDbEllipse
 10
152.684021
 20
104.999992
 30
0.0
 11
52.723556518554688
 21
-0.0000686645507813
 31
0.0
210
0.0
220
0.0
230
1.0
 40
0.957826
 41
1.5707873106002808
 42
3.7720010280609131
  0
LINE
  5
7F6
100
AcDbEntity
  8
0
 62
     7
 48
0.173438
100
AcDbLine
 10
192.322601
 20
138.298218
 30
0.0
 11
197.841034
 21
142.502533
 31
0.0
210
0.0
220
0.0
230
1.0
  0
LINE
  5
7F7
100
AcDbEntity
  8
0
 62
     7
 48
0.007183
100
AcDbLine
 10
197.841034
 20
142.502533
 30
0.0
 11
198.128372
 21
142.502533
 31
0.0
210
0.0
220
0.0
230
1.0
  0
ARC
  5
7F8
100
AcDbEntity
  8
0
 62
     7
100
AcDbCircle
 10
225.236908
 20
74.33725
 30
0.0
 40
1.354134
210
0.0
220
0.0
230
1.0
100
AcDbArc
 50
247.073846
 51
270.03505
  0
POLYLINE
  5
7F9
100
AcDbEntity
  8
0
 62
     7
100
AcDb2dPolyline
 66
     1
 10
0.0
 20
0.0
 30
0.0
 71
    10
  0
VERTEX
  5
7FA
100
AcDbEntity
  8
0
100
AcDbVertex
100
AcDb2dVertex
 10
225.237747
 20
72.983093
 30
0.0
  0
VERTEX
  5
7FB
100
AcDbEntity
  8
0
100
AcDbVertex
100
AcDb2dVertex
 10
225.635498
 20
73.042564
 30
0.0
  0
VERTEX
  5
7FC
100
AcDbEntity
  8
0
100
AcDbVertex
100
AcDb2dVertex
 10
225.997833
 20
73.216995
 30
0.0
  0
VERTEX
  5
7FD
100
AcDbEntity
  8
0
100
AcDbVertex
100
AcDb2dVertex
 10
226.289734
 20
73.493362
 30
0.0
  0
VERTEX
  5
7FE
100
AcDbEntity
  8
0
100
AcDbVertex
100
AcDb2dVertex
 10
226.479202
 20
73.847687
 30
0.0
  0
VERTEX
  5
7FF
100
AcDbEntity
  8
0
100
AcDbVertex
100
AcDb2dVertex
 10
226.542725
 20
74.244347
 30
0.0
  0
VERTEX
  5
800
100
AcDbEntity
  8
0
100
AcDbVertex
100
AcDb2dVertex
 10
226.471802
 20
74.639725
 30
0.0
  0
VERTEX
  5
801
100
AcDbEntity
  8
0
100
AcDbVertex
100
AcDb2dVertex
 10
226.275894
 20
74.99054
 30
0.0
  0
VERTEX
  5
802
100
AcDbEntity
  8
0
100
AcDbVertex
100
AcDb2dVertex
 10
225.979187
 20
75.261765
 30
0.0
  0
VERTEX
  5
803
100
AcDbEntity
  8
0
100
AcDbVertex
100
AcDb2dVertex
 10
225.766052
 20
75.376083
 30
0.0
  0
SEQEND
  5
804
100
AcDbEntity
  8
0
  0
ARC
  5
805
100
AcDbEntity
  8
0
 62
     7
100
AcDbCircle
 10
88.85643
 20
152.180603
 30
0.0
 40
0.726059
210
0.0
220
0.0
230
1.0
100
AcDbArc
 50
218.132777
 51
269.874431
  0
POLYLINE
  5
806
100
AcDbEntity
  8
0
 62
     7
100
AcDb2dPolyline
 66
     1
 10
0.0
 20
0.0
 30
0.0
 71
     9
  0
VERTEX
  5
807
100
AcDbEntity
  8
0
100
AcDbVertex
100
AcDb2dVertex
 10
89.217712
 20
153.954895
 30
0.0
  0
VERTEX
  5
808
100
AcDbEntity
  8
0
100
AcDbVertex
100
AcDb2dVertex
 10
88.904388
 20
153.892136
 30
0.0
  0
VERTEX
  5
809
100
AcDbEntity
  8
0
100
AcDbVertex
100
AcDb2dVertex
 10
88.614731
 20
153.718781
 30
0.0
  0
VERTEX
  5
80A
100
AcDbEntity
  8
0
100
AcDbVertex
100
AcDb2dVertex
 10
88.33139
 20
153.403503
 30
0.0
  0
VERTEX
  5
80B
100
AcDbEntity
  8
0
100
AcDbVertex
100
AcDb2dVertex
 10
88.142441
 20
153.023834
 30
0.0
  0
VERTEX
  5
80C
100
AcDbEntity
  8
0
100
AcDbVertex
100
AcDb2dVertex
 10
88.051849
 20
152.595856
 30
0.0
  0
VERTEX
  5
80D
100
AcDbEntity
  8
0
100
AcDbVertex
100
AcDb2dVertex
 10
88.077423
 20
152.181122
 30
0.0
  0
VERTEX
  5
80E
100
AcDbEntity
  8
0
100
AcDbVertex
100
AcDb2dVertex
 10
88.197136
 20
151.859894
 30
0.0
  0
VERTEX
  5
80F
100
AcDbEntity
  8
0
100
AcDbVertex
100
AcDb2dVertex
 10
88.284729
 20
151.731812
 30
0.0
  0
SEQEND
  5
810
100
AcDbEntity
  8
0
  0
ELLIPSE
  5
811
100
AcDbEntity
  8
0
 62
     7
100
AcDbEllipse
 10
102.793396
 20
166.3918
 30
0.0
 11
-0.5740814208984375
 21
-1.1728668212890625
 31
0.0
210
0.0
220
0.0
230
1.0
 40
0.752764
 41
3.494481086730957
 42
6.6361093521118164
  0
ELLIPSE
  5
812
100
AcDbEntity
  8
0
 62
     7
100
AcDbEllipse
 10
119.474785
 20
175.89502
 30
0.0
 11
-0.7308807373046875
 21
-1.1173782348632813
 31
0.0
210
0.0
220
0.0
230
1.0
 40
0.766446
 41
3.6061747074127197
 42
6.7477850914001465
  0
ELLIPSE
  5
813
100
AcDbEntity
  8
0
 62
     7
100
AcDbEllipse
 10
137.943665
 20
180.566864
 30
0.0
 11
-0.883544921875
 21
-1.0421829223632812
 31
0.0
210
0.0
220
0.0
230
1.0
 40
0.781025
 41
3.726402759552002
 42
6.8679933547973633
  0
ELLIPSE
  5
814
100
AcDbEntity
  8
0
 62
     7
100
AcDbEllipse
 10
156.941391
 20
180.088943
 30
0.0
 11
1.029205322265625
 21
0.9444351196289063
 31
0.0
210
0.0
220
0.0
230
1.0
 40
0.795547
 41
0.7142626047134399
 42
3.8558304309844971
  0
ELLIPSE
  5
815
100
AcDbEntity
  8
0
 62
     7
100
AcDbEllipse
 10
175.173325
 20
174.493835
 30
0.0
 11
1.1640472412109375
 21
0.8216934204101563
 31
0.0
210
0.0
220
0.0
230
1.0
 40
0.809167
 41
0.8535745739936829
 42
3.995119571685791
  0
ELLIPSE
  5
816
100
AcDbEntity
  8
0
 62
     7
100
AcDbEllipse
 10
191.396973
 20
164.162842
 30
0.0
 11
1.28302001953125
 21
0.6727142333984375
 31
0.0
210
0.0
220
0.0
230
1.0
 40
0.821129
 41
1.8946959972381592
 42
4.1442065238952637
  0
ARC
  5
817
100
AcDbEntity
  8
0
 62
     7
100
AcDbCircle
 10
191.645721
 20
163.68779
 30
0.0
 40
1.726189
210
0.0
220
0.0
230
1.0
100
AcDbArc
 50
90.792789
 51
133.147667
  0
ELLIPSE
  5
818
100
AcDbEntity
  8
0
 62
     7
100
AcDbEllipse
 10
217.626221
 20
93.267799
 30
0.0
 11
1.47955322265625
 21
-0.1282577514648438
 31
0.0
210
0.0
220
0.0
230
1.0
 40
0.840397
 41
2.5940675735473633
 42
4.6601910591125488
  0
ARC
  5
819
100
AcDbEntity
  8
0
 62
     7
100
AcDbCircle
 10
217.670929
 20
93.783661
 30
0.0
 40
1.765874
210
0.0
220
0.0
230
1.0
100
AcDbArc
 50
262.530509
 51
269.995572
  0
POLYLINE
  5
81A
100
AcDbEntity
  8
0
 62
     7
100
AcDb2dPolyline
 66
     1
 10
0.0
 20
0.0
 30
0.0
 71
    11
  0
VERTEX
  5
81B
100
AcDbEntity
  8
0
100
AcDbVertex
100
AcDb2dVertex
 10
213.177765
 20
133.55014
 30
0.0
  0
VERTEX
  5
81C
100
AcDbEntity
  8
0
100
AcDbVertex
100
AcDb2dVertex
 10
212.780106
 20
133.364014
 30
0.0
  0
VERTEX
  5
81D
100
AcDbEntity
  8
0
100
AcDbVertex
100
AcDb2dVertex
 10
212.439072
 20
133.068893
 30
0.0
  0
VERTEX
  5
81E
100
AcDbEntity
  8
0
100
AcDbVertex
100
AcDb2dVertex
 10
212.225708
 20
132.723526
 30
0.0
  0
VERTEX
  5
81F
100
AcDbEntity
  8
0
100
AcDbVertex
100
AcDb2dVertex
 10
212.140976
 20
132.366165
 30
0.0
  0
VERTEX
  5
820
100
AcDbEntity
  8
0
100
AcDbVertex
100
AcDb2dVertex
 10
212.166611
 20
132.055191
 30
0.0
  0
VERTEX
  5
821
100
AcDbEntity
  8
0
100
AcDbVertex
100
AcDb2dVertex
 10
212.291718
 20
131.75087
 30
0.0
  0
VERTEX
  5
822
100
AcDbEntity
  8
0
100
AcDbVertex
100
AcDb2dVertex
 10
212.56456
 20
131.443634
 30
0.0
  0
VERTEX
  5
823
100
AcDbEntity
  8
0
100
AcDbVertex
100
AcDb2dVertex
 10
212.877716
 20
131.258392
 30
0.0
  0
VERTEX
  5
824
100
AcDbEntity
  8
0
100
AcDbVertex
100
AcDb2dVertex
 10
213.273285
 20
131.149979
 30
0.0
  0
VERTEX
  5
825
100
AcDbEntity
  8
0
100
AcDbVertex
100
AcDb2dVertex
 10
213.505112
 20
131.134094
 30
0.0
  0
SEQEND
  5
826
100
AcDbEntity
  8
0
  0
ARC
  5
827
100
AcDbEntity
  8
0
 62
     7
100
AcDbCircle
 10
213.71492
 20
131.874542
 30
0.0
 40
1.759573
210
0.0
220
0.0
230
1.0
100
AcDbArc
 50
90.055279
 51
107.774511
  0
POLYLINE
  5
828
100
AcDbEntity
  8
0
 62
     7
100
AcDb2dPolyline
 66
     1
 10
0.0
 20
0.0
 30
0.0
 71
    12
  0
VERTEX
  5
829
100
AcDbEntity
  8
0
100
AcDbVertex
100
AcDb2dVertex
 10
217.956329
 20
114.344887
 30
0.0
  0
VERTEX
  5
82A
100
AcDbEntity
  8
0
100
AcDbVertex
100
AcDb2dVertex
 10
217.521759
 20
114.248886
 30
0.0
  0
VERTEX
  5
82B
100
AcDbEntity
  8
0
100
AcDbVertex
100
AcDb2dVertex
 10
217.115234
 20
114.032249
 30
0.0
  0
VERTEX
  5
82C
100
AcDbEntity
  8
0
100
AcDbVertex
100
AcDb2dVertex
 10
216.820984
 20
113.737213
 30
0.0
  0
VERTEX
  5
82D
100
AcDbEntity
  8
0
100
AcDbVertex
100
AcDb2dVertex
 10
216.649979
 20
113.401489
 30
0.0
  0
VERTEX
  5
82E
100
AcDbEntity
  8
0
100
AcDbVertex
100
AcDb2dVertex
 10
216.599106
 20
113.087662
 30
0.0
  0
VERTEX
  5
82F
100
AcDbEntity
  8
0
100
AcDbVertex
100
AcDb2dVertex
 10
216.647583
 20
112.759979
 30
0.0
  0
VERTEX
  5
830
100
AcDbEntity
  8
0
100
AcDbVertex
100
AcDb2dVertex
 10
216.839142
 20
112.398911
 30
0.0
  0
VERTEX
  5
831
100
AcDbEntity
  8
0
100
AcDbVertex
100
AcDb2dVertex
 10
217.099213
 20
112.149429
 30
0.0
  0
VERTEX
  5
832
100
AcDbEntity
  8
0
100
AcDbVertex
100
AcDb2dVertex
 10
217.458374
 20
111.957672
 30
0.0
  0
VERTEX
  5
833
100
AcDbEntity
  8
0
100
AcDbVertex
100
AcDb2dVertex
 10
217.904266
 20
111.858322
 30
0.0
  0
VERTEX
  5
834
100
AcDbEntity
  8
0
100
AcDbVertex
100
AcDb2dVertex
 10
218.053162
 20
111.852013
 30
0.0
  0
SEQEND
  5
835
100
AcDbEntity
  8
0
  0
ARC
  5
836
100
AcDbEntity
  8
0
 62
     7
100
AcDbCircle
 10
218.114822
 20
112.585426
 30
0.0
 40
1.766586
210
0.0
220
0.0
230
1.0
100
AcDbArc
 50
90.001498
 51
95.14709
  0
ARC
  5
837
100
AcDbEntity
  8
0
 62
     7
100
AcDbCircle
 10
212.386414
 20
74.740623
 30
0.0
 40
1.757564
210
0.0
220
0.0
230
1.0
100
AcDbArc
 50
249.898396
 51
269.918022
  0
ARC
  5
838
100
AcDbEntity
  8
0
 62
     7
100
AcDbCircle
 10
91.317886
 20
137.328369
 30
0.0
 40
0.77334
210
0.0
220
0.0
230
1.0
100
AcDbArc
 50
229.746011
 51
269.927358
  0
POLYLINE
  5
839
100
AcDbEntity
  8
0
 62
     7
100
AcDb2dPolyline
 66
     1
 10
0.0
 20
0.0
 30
0.0
 71
     9
  0
VERTEX
  5
83A
100
AcDbEntity
  8
0
100
AcDbVertex
100
AcDb2dVertex
 10
91.56604
 20
139.055145
 30
0.0
  0
VERTEX
  5
83B
100
AcDbEntity
  8
0
100
AcDbVertex
100
AcDb2dVertex
 10
91.270004
 20
139.000488
 30
0.0
  0
VERTEX
  5
83C
100
AcDbEntity
  8
0
100
AcDbVertex
100
AcDb2dVertex
 10
90.948212
 20
138.80777
 30
0.0
  0
VERTEX
  5
83D
100
AcDbEntity
  8
0
100
AcDbVertex
100
AcDb2dVertex
 10
90.702538
 20
138.527023
 30
0.0
  0
VERTEX
  5
83E
100
AcDbEntity
  8
0
100
AcDbVertex
100
AcDb2dVertex
 10
90.525803
 20
138.163925
 30
0.0
  0
VERTEX
  5
83F
100
AcDbEntity
  8
0
100
AcDbVertex
100
AcDb2dVertex
 10
90.441925
 20
137.715851
 30
0.0
  0
VERTEX
  5
840
100
AcDbEntity
  8
0
100
AcDbVertex
100
AcDb2dVertex
 10
90.489868
 20
137.272659
 30
0.0
  0
VERTEX
  5
841
100
AcDbEntity
  8
0
100
AcDbVertex
100
AcDb2dVertex
 10
90.63903
 20
136.939102
 30
0.0
  0
VERTEX
  5
842
100
AcDbEntity
  8
0
100
AcDbVertex
100
AcDb2dVertex
 10
90.818016
 20
136.737976
 30
0.0
  0
SEQEND
  5
843
100
AcDbEntity
  8
0
  0
ELLIPSE
  5
844
100
AcDbEntity
  8
0
 62
     7
100
AcDbEllipse
 10
152.273315
 20
167.244751
 30
0.0
 11
0.979400634765625
 21
0.9521713256835938
 31
0.0
210
0.0
220
0.0
230
1.0
 40
0.826763
 41
0.7046911716461182
 42
3.8462281227111816
  0
ELLIPSE
  5
845
100
AcDbEntity
  8
0
 62
     7
100
AcDbEllipse
 10
128.748764
 20
166.228378
 30
0.0
 11
-0.7665252685546875
 21
-1.0861129760742187
 31
0.0
210
0.0
220
0.0
230
1.0
 40
0.80701
 41
3.6589395999908447
 42
6.8005681037902832
  0
ELLIPSE
  5
846
100
AcDbEntity
  8
0
 62
     7
100
AcDbEllipse
 10
174.3797
 20
158.784927
 30
0.0
 11
1.1720428466796875
 21
0.7620773315429688
 31
0.0
210
0.0
220
0.0
230
1.0
 40
0.84531
 41
0.9150767922401428
 42
4.0565156936645508
  0
ELLIPSE
  5
847
100
AcDbEntity
  8
0
 62
     7
100
AcDbEllipse
 10
107.387489
 20
155.890564
 30
0.0
 11
-0.5439300537109375
 21
-1.17401123046875
 31
0.0
210
0.0
220
0.0
230
1.0
 40
0.788697
 41
5.6931061744689941
 42
6.633453369140625
  0
POLYLINE
  5
848
100
AcDbEntity
  8
0
 62
     7
100
AcDb2dPolyline
 66
     1
 10
0.0
 20
0.0
 30
0.0
 71
     8
  0
VERTEX
  5
849
100
AcDbEntity
  8
0
100
AcDbVertex
100
AcDb2dVertex
 10
107.580666
 20
157.140625
 30
0.0
  0
VERTEX
  5
84A
100
AcDbEntity
  8
0
100
AcDbVertex
100
AcDb2dVertex
 10
107.272446
 20
157.089081
 30
0.0
  0
VERTEX
  5
84B
100
AcDbEntity
  8
0
100
AcDbVertex
100
AcDb2dVertex
 10
106.938477
 20
156.913605
 30
0.0
  0
VERTEX
  5
84C
100
AcDbEntity
  8
0
100
AcDbVertex
100
AcDb2dVertex
 10
106.649109
 20
156.628891
 30
0.0
  0
VERTEX
  5
84D
100
AcDbEntity
  8
0
100
AcDbVertex
100
AcDb2dVertex
 10
106.421738
 20
156.226181
 30
0.0
  0
VERTEX
  5
84E
100
AcDbEntity
  8
0
100
AcDbVertex
100
AcDb2dVertex
 10
106.317566
 20
155.772186
 30
0.0
  0
VERTEX
  5
84F
100
AcDbEntity
  8
0
100
AcDbVertex
100
AcDb2dVertex
 10
106.344559
 20
155.379181
 30
0.0
  0
VERTEX
  5
850
100
AcDbEntity
  8
0
100
AcDbVertex
100
AcDb2dVertex
 10
106.420319
 20
155.153778
 30
0.0
  0
SEQEND
  5
851
100
AcDbEntity
  8
0
  0
POLYLINE
  5
852
100
AcDbEntity
  8
0
 62
     7
100
AcDb2dPolyline
 66
     1
 10
0.0
 20
0.0
 30
0.0
 71
     9
  0
VERTEX
  5
853
100
AcDbEntity
  8
0
100
AcDbVertex
100
AcDb2dVertex
 10
190.996719
 20
143.146576
 30
0.0
  0
VERTEX
  5
854
100
AcDbEntity
  8
0
100
AcDbVertex
100
AcDb2dVertex
 10
190.655685
 20
142.866348
 30
0.0
  0
VERTEX
  5
855
100
AcDbEntity
  8
0
100
AcDbVertex
100
AcDb2dVertex
 10
190.408325
 20
142.489456
 30
0.0
  0
VERTEX
  5
856
100
AcDbEntity
  8
0
100
AcDbVertex
100
AcDb2dVertex
 10
190.308487
 20
142.098892
 30
0.0
  0
VERTEX
  5
857
100
AcDbEntity
  8
0
100
AcDbVertex
100
AcDb2dVertex
 10
190.338867
 20
141.74176
 30
0.0
  0
VERTEX
  5
858
100
AcDbEntity
  8
0
100
AcDbVertex
100
AcDb2dVertex
 10
190.507553
 20
141.384232
 30
0.0
  0
VERTEX
  5
859
100
AcDbEntity
  8
0
100
AcDbVertex
100
AcDb2dVertex
 10
190.798813
 20
141.10672
 30
0.0
  0
VERTEX
  5
85A
100
AcDbEntity
  8
0
100
AcDbVertex
100
AcDb2dVertex
 10
191.138641
 20
140.94809
 30
0.0
  0
VERTEX
  5
85B
100
AcDbEntity
  8
0
100
AcDbVertex
100
AcDb2dVertex
 10
191.561615
 20
140.886841
 30
0.0
  0
SEQEND
  5
85C
100
AcDbEntity
  8
0
  0
ARC
  5
85D
100
AcDbEntity
  8
0
 62
     7
100
AcDbCircle
 10
191.850616
 20
141.751526
 30
0.0
 40
1.635536
210
0.0
220
0.0
230
1.0
100
AcDbArc
 50
90.253853
 51
121.470352
  0
ELLIPSE
  5
85E
100
AcDbEntity
  8
0
 62
     7
100
AcDbEllipse
 10
204.506714
 20
149.799988
 30
0.0
 11
1.380157470703125
 21
0.4978561401367188
 31
0.0
210
0.0
220
0.0
230
1.0
 40
0.830754
 41
1.7915306091308594
 42
4.3027539253234863
  0
LINE
  5
85F
100
AcDbEntity
  8
0
 62
     7
 48
0.36485
100
AcDbLine
 10
224.205994
 20
159.894348
 30
0.0
 11
212.597244
 21
151.050018
 31
0.0
210
0.0
220
0.0
230
1.0
  0
ELLIPSE
  5
860
100
AcDbEntity
  8
0
 62
     7
100
AcDbEllipse
 10
140.805664
 20
105.0
 30
0.0
 11
0.0
 21
50.5
 31
0.0
210
0.0
220
0.0
230
1.0
 40
0.957826
 41
6.2831845283508301
 42
7.4135923385620117
  0
ELLIPSE
  5
861
100
AcDbEntity
  8
0
 62
     7
100
AcDbEllipse
 10
150.444748
 20
105.0
 30
0.0
 11
0.0
 21
-94.292877197265625
 31
0.0
210
0.0
220
0.0
230
1.0
 40
0.957826
 41
2.2118089199066162
 42
3.4206879138946533
  0
ELLIPSE
  5
862
100
AcDbEntity
  8
0
 62
     7
100
AcDbEllipse
 10
182.226822
 20
104.964821
 30
0.0
 11
110.29689025878906
 21
-0.3929061889648438
 31
0.0
210
0.0
220
0.0
230
1.0
 40
0.958075
 41
2.1137337684631348
 42
2.8190827369689941
  0
LINE
  5
863
100
AcDbEntity
  8
0
 62
     7
 48
0.018024
100
AcDbLine
 10
124.843102
 20
195.659439
 30
0.0
 11
125.563889
 21
195.644226
 31
0.0
210
0.0
220
0.0
230
1.0
  0
ELLIPSE
  5
864
100
AcDbEntity
  8
0
 62
     7
100
AcDbEllipse
 10
150.385223
 20
105.0
 30
0.0
 11
0.0
 21
94.5
 31
0.0
210
0.0
220
0.0
230
1.0
 40
0.957826
 41
5.3533782958984375
 42
6.2710380554199219
  0
ELLIPSE
  5
865
100
AcDbEntity
  8
0
 62
     7
100
AcDbEllipse
 10
152.68396
 20
104.999855
 30
0.0
 11
98.660995483398438
 21
0.0006866455078125
 31
0.0
210
0.0
220
0.0
230
1.0
 40
0.957827
 41
0.6304006576538086
 42
1.5707954168319702
  0
ARC
  5
866
100
AcDbEntity
  8
0
 62
     7
100
AcDbCircle
 10
152.662842
 20
96.793884
 30
0.0
 40
102.705666
210
0.0
220
0.0
230
1.0
100
AcDbArc
 50
89.988548
 51
105.716049
  0
POLYLINE
  5
867
100
AcDbEntity
  8
0
 62
     7
100
AcDb2dPolyline
 66
     1
 10
0.0
 20
0.0
 30
0.0
 71
    68
  0
VERTEX
  5
868
100
AcDbEntity
  8
0
100
AcDbVertex
100
AcDb2dVertex
 10
123.103149
 20
14.323532
 30
0.0
  0
VERTEX
  5
869
100
AcDbEntity
  8
0
100
AcDbVertex
100
AcDb2dVertex
 10
121.233932
 20
15.470612
 30
0.0
  0
VERTEX
  5
86A
100
AcDbEntity
  8
0
100
AcDbVertex
100
AcDb2dVertex
 10
119.388718
 20
16.653175
 30
0.0
  0
VERTEX
  5
86B
100
AcDbEntity
  8
0
100
AcDbVertex
100
AcDb2dVertex
 10
117.568214
 20
17.870781
 30
0.0
  0
VERTEX
  5
86C
100
AcDbEntity
  8
0
100
AcDbVertex
100
AcDb2dVertex
 10
115.773132
 20
19.122986
 30
0.0
  0
VERTEX
  5
86D
100
AcDbEntity
  8
0
100
AcDbVertex
100
AcDb2dVertex
 10
114.00415
 20
20.409317
 30
0.0
  0
VERTEX
  5
86E
100
AcDbEntity
  8
0
100
AcDbVertex
100
AcDb2dVertex
 10
112.261963
 20
21.729301
 30
0.0
  0
VERTEX
  5
86F
100
AcDbEntity
  8
0
100
AcDbVertex
100
AcDb2dVertex
 10
110.547264
 20
23.082443
 30
0.0
  0
VERTEX
  5
870
100
AcDbEntity
  8
0
100
AcDbVertex
100
AcDb2dVertex
 10
108.860718
 20
24.468231
 30
0.0
  0
VERTEX
  5
871
100
AcDbEntity
  8
0
100
AcDbVertex
100
AcDb2dVertex
 10
107.203003
 20
25.886154
 30
0.0
  0
VERTEX
  5
872
100
AcDbEntity
  8
0
100
AcDbVertex
100
AcDb2dVertex
 10
105.574768
 20
27.335663
 30
0.0
  0
VERTEX
  5
873
100
AcDbEntity
  8
0
100
AcDbVertex
100
AcDb2dVertex
 10
103.976669
 20
28.816223
 30
0.0
  0
VERTEX
  5
874
100
AcDbEntity
  8
0
100
AcDbVertex
100
AcDb2dVertex
 10
102.409363
 20
30.327263
 30
0.0
  0
VERTEX
  5
875
100
AcDbEntity
  8
0
100
AcDbVertex
100
AcDb2dVertex
 10
100.873459
 20
31.868217
 30
0.0
  0
VERTEX
  5
876
100
AcDbEntity
  8
0
100
AcDbVertex
100
AcDb2dVertex
 10
99.369591
 20
33.438492
 30
0.0
  0
VERTEX
  5
877
100
AcDbEntity
  8
0
100
AcDbVertex
100
AcDb2dVertex
 10
97.898361
 20
35.037498
 30
0.0
  0
VERTEX
  5
878
100
AcDbEntity
  8
0
100
AcDbVertex
100
AcDb2dVertex
 10
96.460388
 20
36.664612
 30
0.0
  0
VERTEX
  5
879
100
AcDbEntity
  8
0
100
AcDbVertex
100
AcDb2dVertex
 10
95.056244
 20
38.319214
 30
0.0
  0
VERTEX
  5
87A
100
AcDbEntity
  8
0
100
AcDbVertex
100
AcDb2dVertex
 10
93.686516
 20
40.000648
 30
0.0
  0
VERTEX
  5
87B
100
AcDbEntity
  8
0
100
AcDbVertex
100
AcDb2dVertex
 10
92.351768
 20
41.708279
 30
0.0
  0
VERTEX
  5
87C
100
AcDbEntity
  8
0
100
AcDbVertex
100
AcDb2dVertex
 10
91.052567
 20
43.441425
 30
0.0
  0
VERTEX
  5
87D
100
AcDbEntity
  8
0
100
AcDbVertex
100
AcDb2dVertex
 10
89.789436
 20
45.199413
 30
0.0
  0
VERTEX
  5
87E
100
AcDbEntity
  8
0
100
AcDbVertex
100
AcDb2dVertex
 10
88.562927
 20
46.981541
 30
0.0
  0
VERTEX
  5
87F
100
AcDbEntity
  8
0
100
AcDbVertex
100
AcDb2dVertex
 10
87.373535
 20
48.787109
 30
0.0
  0
VERTEX
  5
880
100
AcDbEntity
  8
0
100
AcDbVertex
100
AcDb2dVertex
 10
86.221779
 20
50.615402
 30
0.0
  0
VERTEX
  5
881
100
AcDbEntity
  8
0
100
AcDbVertex
100
AcDb2dVertex
 10
85.108139
 20
52.465691
 30
0.0
  0
VERTEX
  5
882
100
AcDbEntity
  8
0
100
AcDbVertex
100
AcDb2dVertex
 10
84.033081
 20
54.337234
 30
0.0
  0
VERTEX
  5
883
100
AcDbEntity
  8
0
100
AcDbVertex
100
AcDb2dVertex
 10
82.997063
 20
56.229294
 30
0.0
  0
VERTEX
  5
884
100
AcDbEntity
  8
0
100
AcDbVertex
100
AcDb2dVertex
 10
82.000526
 20
58.141102
 30
0.0
  0
VERTEX
  5
885
100
AcDbEntity
  8
0
100
AcDbVertex
100
AcDb2dVertex
 10
81.043892
 20
60.071896
 30
0.0
  0
VERTEX
  5
886
100
AcDbEntity
  8
0
100
AcDbVertex
100
AcDb2dVertex
 10
80.127563
 20
62.020897
 30
0.0
  0
VERTEX
  5
887
100
AcDbEntity
  8
0
100
AcDbVertex
100
AcDb2dVertex
 10
79.251938
 20
63.98732
 30
0.0
  0
VERTEX
  5
888
100
AcDbEntity
  8
0
100
AcDbVertex
100
AcDb2dVertex
 10
78.417381
 20
65.970375
 30
0.0
  0
VERTEX
  5
889
100
AcDbEntity
  8
0
100
AcDbVertex
100
AcDb2dVertex
 10
77.624245
 20
67.969254
 30
0.0
  0
VERTEX
  5
88A
100
AcDbEntity
  8
0
100
AcDbVertex
100
AcDb2dVertex
 10
76.872879
 20
69.983147
 30
0.0
  0
VERTEX
  5
88B
100
AcDbEntity
  8
0
100
AcDbVertex
100
AcDb2dVertex
 10
76.163589
 20
72.011246
 30
0.0
  0
VERTEX
  5
88C
100
AcDbEntity
  8
0
100
AcDbVertex
100
AcDb2dVertex
 10
75.496681
 20
74.052719
 30
0.0
  0
VERTEX
  5
88D
100
AcDbEntity
  8
0
100
AcDbVertex
100
AcDb2dVertex
 10
74.872444
 20
76.10675
 30
0.0
  0
VERTEX
  5
88E
100
AcDbEntity
  8
0
100
AcDbVertex
100
AcDb2dVertex
 10
74.29113
 20
78.172493
 30
0.0
  0
VERTEX
  5
88F
100
AcDbEntity
  8
0
100
AcDbVertex
100
AcDb2dVertex
 10
73.752998
 20
80.249123
 30
0.0
  0
VERTEX
  5
890
100
AcDbEntity
  8
0
100
AcDbVertex
100
AcDb2dVertex
 10
73.25827
 20
82.335785
 30
0.0
  0
VERTEX
  5
891
100
AcDbEntity
  8
0
100
AcDbVertex
100
AcDb2dVertex
 10
72.807159
 20
84.431633
 30
0.0
  0
VERTEX
  5
892
100
AcDbEntity
  8
0
100
AcDbVertex
100
AcDb2dVertex
 10
72.399849
 20
86.535828
 30
0.0
  0
VERTEX
  5
893
100
AcDbEntity
  8
0
100
AcDbVertex
100
AcDb2dVertex
 10
72.036522
 20
88.647499
 30
0.0
  0
VERTEX
  5
894
100
AcDbEntity
  8
0
100
AcDbVertex
100
AcDb2dVertex
 10
71.717316
 20
90.765808
 30
0.0
  0
VERTEX
  5
895
100
AcDbEntity
  8
0
100
AcDbVertex
100
AcDb2dVertex
 10
71.442383
 20
92.889885
 30
0.0
  0
VERTEX
  5
896
100
AcDbEntity
  8
0
100
AcDbVertex
100
AcDb2dVertex
 10
71.211823
 20
95.018875
 30
0.0
  0
VERTEX
  5
897
100
AcDbEntity
  8
0
100
AcDbVertex
100
AcDb2dVertex
 10
71.025742
 20
97.151909
 30
0.0
  0
VERTEX
  5
898
100
AcDbEntity
  8
0
100
AcDbVertex
100
AcDb2dVertex
 10
70.884216
 20
99.288116
 30
0.0
  0
VERTEX
  5
899
100
AcDbEntity
  8
0
100
AcDbVertex
100
AcDb2dVertex
 10
70.7873
 20
101.426643
 30
0.0
  0
VERTEX
  5
89A
100
AcDbEntity
  8
0
100
AcDbVertex
100
AcDb2dVertex
 10
70.735046
 20
103.56662
 30
0.0
  0
VERTEX
  5
89B
100
AcDbEntity
  8
0
100
AcDbVertex
100
AcDb2dVertex
 10
70.727463
 20
105.707169
 30
0.0
  0
VERTEX
  5
89C
100
AcDbEntity
  8
0
100
AcDbVertex
100
AcDb2dVertex
 10
70.764565
 20
107.847427
 30
0.0
  0
VERTEX
  5
89D
100
AcDbEntity
  8
0
100
AcDbVertex
100
AcDb2dVertex
 10
70.846329
 20
109.986534
 30
0.0
  0
VERTEX
  5
89E
100
AcDbEntity
  8
0
100
AcDbVertex
100
AcDb2dVertex
 10
70.972725
 20
112.123619
 30
0.0
  0
VERTEX
  5
89F
100
AcDbEntity
  8
0
100
AcDbVertex
100
AcDb2dVertex
 10
71.1437
 20
114.25782
 30
0.0
  0
VERTEX
  5
8A0
100
AcDbEntity
  8
0
100
AcDbVertex
100
AcDb2dVertex
 10
71.359177
 20
116.388268
 30
0.0
  0
VERTEX
  5
8A1
100
AcDbEntity
  8
0
100
AcDbVertex
100
AcDb2dVertex
 10
71.619064
 20
118.514107
 30
0.0
  0
VERTEX
  5
8A2
100
AcDbEntity
  8
0
100
AcDbVertex
100
AcDb2dVertex
 10
71.923264
 20
120.634468
 30
0.0
  0
VERTEX
  5
8A3
100
AcDbEntity
  8
0
100
AcDbVertex
100
AcDb2dVertex
 10
72.271637
 20
122.748489
 30
0.0
  0
VERTEX
  5
8A4
100
AcDbEntity
  8
0
100
AcDbVertex
100
AcDb2dVertex
 10
72.664047
 20
124.855316
 30
0.0
  0
VERTEX
  5
8A5
100
AcDbEntity
  8
0
100
AcDbVertex
100
AcDb2dVertex
 10
73.100311
 20
126.954094
 30
0.0
  0
VERTEX
  5
8A6
100
AcDbEntity
  8
0
100
AcDbVertex
100
AcDb2dVertex
 10
73.580269
 20
129.043976
 30
0.0
  0
VERTEX
  5
8A7
100
AcDbEntity
  8
0
100
AcDbVertex
100
AcDb2dVertex
 10
74.103699
 20
131.1241
 30
0.0
  0
VERTEX
  5
8A8
100
AcDbEntity
  8
0
100
AcDbVertex
100
AcDb2dVertex
 10
74.67038
 20
133.193634
 30
0.0
  0
VERTEX
  5
8A9
100
AcDbEntity
  8
0
100
AcDbVertex
100
AcDb2dVertex
 10
75.280083
 20
135.251724
 30
0.0
  0
VERTEX
  5
8AA
100
AcDbEntity
  8
0
100
AcDbVertex
100
AcDb2dVertex
 10
75.932571
 20
137.297638
 30
0.0
  0
VERTEX
  5
8AB
100
AcDbEntity
  8
0
100
AcDbVertex
100
AcDb2dVertex
 10
76.627556
 20
139.330475
 30
0.0
  0
SEQEND
  5
8AC
100
AcDbEntity
  8
0
  0
ELLIPSE
  5
8AD
100
AcDbEntity
  8
0
 62
     7
100
AcDbEllipse
 10
150.385239
 20
105.0
 30
0.0
 11
0.0
 21
95.5
 31
0.0
210
0.0
220
0.0
230
1.0
 40
0.957826
 41
2.8585994243621826
 42
3.1415929794311523
  0
ARC
  5
8AE
100
AcDbEntity
  8
0
 62
     7
100
AcDbCircle
 10
185.186707
 20
117.742424
 30
0.0
 40
120.622704
210
0.0
220
0.0
230
1.0
100
AcDbArc
 50
239.023116
 51
239.982416
  0
ELLIPSE
  5
8AF
100
AcDbEntity
  8
0
 62
     7
100
AcDbEllipse
 10
152.676071
 20
104.996719
 30
0.0
 11
99.712890625
 21
0.037078857421875
 31
0.0
210
0.0
220
0.0
230
1.0
 40
0.957797
 41
0.1020148321986198
 42
0.6300252079963684
  0
ARC
  5
8B0
100
AcDbEntity
  8
0
 62
     7
100
AcDbCircle
 10
160.89621
 20
105.0
 30
0.0
 40
91.492722
210
0.0
220
0.0
230
1.0
100
AcDbArc
 50
353.876559
 51
366.123441
  0
ELLIPSE
  5
8B1
100
AcDbEntity
  8
0
 62
     7
100
AcDbEllipse
 10
152.684082
 20
104.999962
 30
0.0
 11
99.704864501953125
 21
0.0004119873046875
 31
0.0
210
0.0
220
0.0
230
1.0
 40
0.957826
 41
4.7123866081237793
 42
6.1808075904846191
  0
ARC
  5
8B2
100
AcDbEntity
  8
0
 62
     7
100
AcDbCircle
 10
152.663147
 20
113.300293
 30
0.0
 40
103.79982
210
0.0
220
0.0
230
1.0
100
AcDbArc
 50
254.453763
 51
270.011643
  0
LINE
  5
8B3
100
AcDbEntity
  8
0
 62
     7
 48
0.057459
100
AcDbLine
 10
150.38504
 20
200.5
 30
0.0
 11
152.683411
 21
200.5
 31
0.0
210
0.0
220
0.0
230
1.0
  0
LINE
  5
8B4
100
AcDbEntity
  8
0
 62
     7
 48
0.302547
100
AcDbLine
 10
204.677094
 20
151.050003
 30
0.0
 11
216.778992
 21
151.050003
 31
0.0
210
0.0
220
0.0
230
1.0
  0
LINE
  5
8B5
100
AcDbEntity
  8
0
 62
     7
 48
0.327188
100
AcDbLine
 10
212.150208
 20
75.483093
 30
0.0
 11
225.237747
 21
75.483093
 31
0.0
210
0.0
220
0.0
230
1.0
  0
LINE
  5
8B6
100
AcDbEntity
  8
0
 62
     7
 48
0.323483
100
AcDbLine
 10
139.745178
 20
148.0
 30
0.0
 11
152.684509
 21
148.0
 31
0.0
210
0.0
220
0.0
230
1.0
  0
LINE
  5
8B7
100
AcDbEntity
  8
0
 62
     7
 48
0.382628
100
AcDbLine
 10
137.411545
 20
88.750031
 30
0.0
 11
152.716675
 21
88.750031
 31
0.0
210
0.0
220
0.0
230
1.0
  0
LINE
  5
8B8
100
AcDbEntity
  8
0
 62
     7
 48
0.385335
100
AcDbLine
 10
137.303391
 20
91.250031
 30
0.0
 11
152.716782
 21
91.250031
 31
0.0
210
0.0
220
0.0
230
1.0
  0
LINE
  5
8B9
100
AcDbEntity
  8
0
 62
     7
 48
0.352774
100
AcDbLine
 10
123.689209
 20
99.084961
 30
0.0
 11
137.800171
 21
99.084961
 31
0.0
210
0.0
220
0.0
230
1.0
  0
LINE
  5
8BA
100
AcDbEntity
  8
0
 62
     7
 48
0.353614
100
AcDbLine
 10
123.655609
 20
101.584961
 30
0.0
 11
137.800171
 21
101.584961
 31
0.0
210
0.0
220
0.0
230
1.0
  0
LINE
  5
8BB
100
AcDbEntity
  8
0
 62
     7
 48
0.29669
100
AcDbLine
 10
111.048721
 20
94.419922
 30
0.0
 11
122.916336
 21
94.419922
 31
0.0
210
0.0
220
0.0
230
1.0
  0
LINE
  5
8BC
100
AcDbEntity
  8
0
 62
     7
 48
0.298425
100
AcDbLine
 10
110.97934
 20
96.919922
 30
0.0
 11
122.916336
 21
96.919922
 31
0.0
210
0.0
220
0.0
230
1.0
  0
LINE
  5
8BD
100
AcDbEntity
  8
0
 62
     7
 48
0.318832
100
AcDbLine
 10
121.573326
 20
79.442711
 30
0.0
 11
134.326614
 21
79.442711
 31
0.0
210
0.0
220
0.0
230
1.0
  0
LINE
  5
8BE
100
AcDbEntity
  8
0
 62
     7
 48
0.323382
100
AcDbLine
 10
121.39212
 20
81.942711
 30
0.0
 11
134.327393
 21
81.942711
 31
0.0
210
0.0
220
0.0
230
1.0
  0
LINE
  5
8BF
100
AcDbEntity
  8
0
 62
     7
 48
0.394868
100
AcDbLine
 10
155.352615
 20
79.516373
 30
0.0
 11
171.147324
 21
79.516373
 31
0.0
210
0.0
220
0.0
230
1.0
  0
LINE
  5
8C0
100
AcDbEntity
  8
0
 62
     7
 48
0.399376
100
AcDbLine
 10
155.171402
 20
82.016373
 30
0.0
 11
171.146439
 21
82.016373
 31
0.0
210
0.0
220
0.0
230
1.0
  0
LINE
  5
8C1
100
AcDbEntity
  8
0
 62
     7
 48
0.296616
100
AcDbLine
 10
111.011261
 20
115.460899
 30
0.0
 11
122.8759
 21
115.460899
 31
0.0
210
0.0
220
0.0
230
1.0
  0
LINE
  5
8C2
100
AcDbEntity
  8
0
 62
     7
 48
0.29833
100
AcDbLine
 10
110.942688
 20
112.960899
 30
0.0
 11
122.875908
 21
112.960899
 31
0.0
210
0.0
220
0.0
230
1.0
  0
LINE
  5
8C3
100
AcDbEntity
  8
0
 62
     7
 48
0.356339
100
AcDbLine
 10
138.495819
 20
73.750061
 30
0.0
 11
152.749374
 21
73.750061
 31
0.0
210
0.0
220
0.0
230
1.0
  0
LINE
  5
8C4
100
AcDbEntity
  8
0
 62
     7
 48
0.36194
100
AcDbLine
 10
138.271912
 20
76.250061
 30
0.0
 11
152.749496
 21
76.250061
 31
0.0
210
0.0
220
0.0
230
1.0
  0
LINE
  5
8C5
100
AcDbEntity
  8
0
 62
     7
 48
0.401775
100
AcDbLine
 10
145.791901
 20
118.403641
 30
0.0
 11
161.862915
 21
118.403641
 31
0.0
210
0.0
220
0.0
230
1.0
  0
LINE
  5
8C6
100
AcDbEntity
  8
0
 62
     7
 48
0.403949
100
AcDbLine
 10
145.704193
 20
115.903641
 30
0.0
 11
161.862137
 21
115.903641
 31
0.0
210
0.0
220
0.0
230
1.0
  0
LINE
  5
8C7
100
AcDbEntity
  8
0
 62
     7
 48
0.363757
100
AcDbLine
 10
128.901886
 20
118.366814
 30
0.0
 11
143.452148
 21
118.366814
 31
0.0
210
0.0
220
0.0
230
1.0
  0
LINE
  5
8C8
100
AcDbEntity
  8
0
 62
     7
 48
0.365961
100
AcDbLine
 10
128.814575
 20
115.866814
 30
0.0
 11
143.453033
 21
115.866814
 31
0.0
210
0.0
220
0.0
230
1.0
  0
LINE
  5
8C9
100
AcDbEntity
  8
0
 62
     7
 48
0.414266
100
AcDbLine
 10
151.017426
 20
99.144554
 30
0.0
 11
167.588074
 21
99.144554
 31
0.0
210
0.0
220
0.0
230
1.0
  0
LINE
  5
8CA
100
AcDbEntity
  8
0
 62
     7
 48
0.415098
100
AcDbLine
 10
150.984161
 20
101.644554
 30
0.0
 11
167.588074
 21
101.644554
 31
0.0
210
0.0
220
0.0
230
1.0
  0
LINE
  5
8CB
100
AcDbEntity
  8
0
 62
     7
 48
0.419677
100
AcDbLine
 10
165.705048
 20
94.539101
 30
0.0
 11
182.492126
 21
94.539101
 31
0.0
210
0.0
220
0.0
230
1.0
  0
LINE
  5
8CC
100
AcDbEntity
  8
0
 62
     7
 48
0.421401
100
AcDbLine
 10
165.636078
 20
97.039101
 30
0.0
 11
182.492126
 21
97.039101
 31
0.0
210
0.0
220
0.0
230
1.0
  0
LINE
  5
8CD
100
AcDbEntity
  8
0
 62
     7
 48
0.410274
100
AcDbLine
 10
166.040741
 20
115.580078
 30
0.0
 11
182.451706
 21
115.580078
 31
0.0
210
0.0
220
0.0
230
1.0
  0
LINE
  5
8CE
100
AcDbEntity
  8
0
 62
     7
 48
0.421329
100
AcDbLine
 10
165.598541
 20
113.080078
 30
0.0
 11
182.451706
 21
113.080078
 31
0.0
210
0.0
220
0.0
230
1.0
  0
LINE
  5
8CF
100
AcDbEntity
  8
0
 62
     7
 48
0.356071
100
AcDbLine
 10
138.375824
 20
136.249939
 30
0.0
 11
152.618668
 21
136.249939
 31
0.0
210
0.0
220
0.0
230
1.0
  0
LINE
  5
8D0
100
AcDbEntity
  8
0
 62
     7
 48
0.361667
100
AcDbLine
 10
138.151855
 20
133.749939
 30
0.0
 11
152.618546
 21
133.749939
 31
0.0
210
0.0
220
0.0
230
1.0
  0
LINE
  5
8D1
100
AcDbEntity
  8
0
 62
     7
 48
0.31862
100
AcDbLine
 10
121.475929
 20
130.483627
 30
0.0
 11
134.220718
 21
130.483627
 31
0.0
210
0.0
220
0.0
230
1.0
  0
LINE
  5
8D2
100
AcDbEntity
  8
0
 62
     7
 48
0.323157
100
AcDbLine
 10
121.295311
 20
127.983627
 30
0.0
 11
134.221603
 21
127.983627
 31
0.0
210
0.0
220
0.0
230
1.0
  0
LINE
  5
8D3
100
AcDbEntity
  8
0
 62
     7
 48
0.394641
100
AcDbLine
 10
155.255768
 20
130.557281
 30
0.0
 11
171.041412
 21
130.557281
 31
0.0
210
0.0
220
0.0
230
1.0
  0
LINE
  5
8D4
100
AcDbEntity
  8
0
 62
     7
 48
0.399165
100
AcDbLine
 10
155.074051
 20
128.057281
 30
0.0
 11
171.040649
 21
128.057281
 31
0.0
210
0.0
220
0.0
230
1.0
  0
LINE
  5
8D5
100
AcDbEntity
  8
0
 62
     7
 48
0.323391
100
AcDbLine
 10
139.74791
 20
62.0
 30
0.0
 11
152.683533
 21
62.0
 31
0.0
210
0.0
220
0.0
230
1.0
  0
LINE
  5
8D6
100
AcDbEntity
  8
0
 62
     7
 48
0.051534
100
AcDbLine
 10
88.854843
 20
151.454895
 30
0.0
 11
90.916183
 21
151.454895
 31
0.0
210
0.0
220
0.0
230
1.0
  0
LINE
  5
8D7
100
AcDbEntity
  8
0
 62
     7
 48
0.042462
100
AcDbLine
 10
89.217712
 20
153.954895
 30
0.0
 11
90.916183
 21
153.954895
 31
0.0
210
0.0
220
0.0
230
1.0
  0
LINE
  5
8D8
100
AcDbEntity
  8
0
 62
     7
 48
0.083801
100
AcDbLine
 10
102.559845
 20
165.141861
 30
0.0
 11
105.911888
 21
165.141861
 31
0.0
210
0.0
220
0.0
230
1.0
  0
LINE
  5
8D9
100
AcDbEntity
  8
0
 62
     7
 48
0.072101
100
AcDbLine
 10
103.026962
 20
167.641861
 30
0.0
 11
105.911003
 21
167.641861
 31
0.0
210
0.0
220
0.0
230
1.0
  0
LINE
  5
8DA
100
AcDbEntity
  8
0
 62
     7
 48
0.122227
100
AcDbLine
 10
119.205116
 20
174.645081
 30
0.0
 11
124.094185
 21
174.645081
 31
0.0
210
0.0
220
0.0
230
1.0
  0
LINE
  5
8DB
100
AcDbEntity
  8
0
 62
     7
 48
0.108742
100
AcDbLine
 10
119.744522
 20
177.145081
 30
0.0
 11
124.094185
 21
177.145081
 31
0.0
210
0.0
220
0.0
230
1.0
  0
LINE
  5
8DC
100
AcDbEntity
  8
0
 62
     7
 48
0.164223
100
AcDbLine
 10
137.656342
 20
179.31691
 30
0.0
 11
144.225281
 21
179.31691
 31
0.0
210
0.0
220
0.0
230
1.0
  0
LINE
  5
8DD
100
AcDbEntity
  8
0
 62
     7
 48
0.149855
100
AcDbLine
 10
138.231079
 20
181.81691
 30
0.0
 11
144.225266
 21
181.81691
 31
0.0
210
0.0
220
0.0
230
1.0
  0
LINE
  5
8DE
100
AcDbEntity
  8
0
 62
     7
 48
0.206921
100
AcDbLine
 10
156.65596
 20
178.838989
 30
0.0
 11
164.9328
 21
178.838989
 31
0.0
210
0.0
220
0.0
230
1.0
  0
LINE
  5
8DF
100
AcDbEntity
  8
0
 62
     7
 48
0.192647
100
AcDbLine
 10
157.226944
 20
181.338989
 30
0.0
 11
164.932816
 21
181.338989
 31
0.0
210
0.0
220
0.0
230
1.0
  0
LINE
  5
8E0
100
AcDbEntity
  8
0
 62
     7
 48
0.247418
100
AcDbLine
 10
174.909302
 20
173.243866
 30
0.0
 11
184.80603
 21
173.243866
 31
0.0
210
0.0
220
0.0
230
1.0
  0
LINE
  5
8E1
100
AcDbEntity
  8
0
 62
     7
 48
0.234194
100
AcDbLine
 10
175.437439
 20
175.743866
 30
0.0
 11
184.805191
 21
175.743866
 31
0.0
210
0.0
220
0.0
230
1.0
  0
LINE
  5
8E2
100
AcDbEntity
  8
0
 62
     7
 48
0.28293
100
AcDbLine
 10
191.172165
 20
162.912857
 30
0.0
 11
202.48938
 21
162.912857
 31
0.0
210
0.0
220
0.0
230
1.0
  0
LINE
  5
8E3
100
AcDbEntity
  8
0
 62
     7
 48
0.271688
100
AcDbLine
 10
191.621857
 20
165.412857
 30
0.0
 11
202.48938
 21
165.412857
 31
0.0
210
0.0
220
0.0
230
1.0
  0
LINE
  5
8E4
100
AcDbEntity
  8
0
 62
     7
 48
0.309277
100
AcDbLine
 10
218.70813
 20
94.517784
 30
0.0
 11
231.079224
 21
94.517784
 31
0.0
210
0.0
220
0.0
230
1.0
  0
LINE
  5
8E5
100
AcDbEntity
  8
0
 62
     7
 48
0.33521
100
AcDbLine
 10
217.670807
 20
92.017784
 30
0.0
 11
231.079224
 21
92.017784
 31
0.0
210
0.0
220
0.0
230
1.0
  0
LINE
  5
8E6
100
AcDbEntity
  8
0
 62
     7
 48
0.329899
100
AcDbLine
 10
213.505112
 20
131.134094
 30
0.0
 11
226.70108
 21
131.134094
 31
0.0
210
0.0
220
0.0
230
1.0
  0
LINE
  5
8E7
100
AcDbEntity
  8
0
 62
     7
 48
0.324675
100
AcDbLine
 10
213.713226
 20
133.634094
 30
0.0
 11
226.700211
 21
133.634094
 31
0.0
210
0.0
220
0.0
230
1.0
  0
LINE
  5
8E8
100
AcDbEntity
  8
0
 62
     7
 48
0.338126
100
AcDbLine
 10
218.053162
 20
111.852013
 30
0.0
 11
231.578186
 21
111.852013
 31
0.0
210
0.0
220
0.0
230
1.0
  0
LINE
  5
8E9
100
AcDbEntity
  8
0
 62
     7
 48
0.336585
100
AcDbLine
 10
218.114777
 20
114.352013
 30
0.0
 11
231.578186
 21
114.352013
 31
0.0
210
0.0
220
0.0
230
1.0
  0
LINE
  5
8EA
100
AcDbEntity
  8
0
 62
     7
 48
0.321346
100
AcDbLine
 10
212.383911
 20
72.983093
 30
0.0
 11
225.237747
 21
72.983093
 31
0.0
210
0.0
220
0.0
230
1.0
  0
LINE
  5
8EB
100
AcDbEntity
  8
0
 62
     7
 48
0.325245
100
AcDbLine
 10
204.659729
 20
96.524612
 30
0.0
 11
217.669525
 21
96.524612
 31
0.0
210
0.0
220
0.0
230
1.0
  0
LINE
  5
8EC
100
AcDbEntity
  8
0
 62
     7
 48
0.338055
100
AcDbLine
 10
204.147324
 20
94.024612
 30
0.0
 11
217.66951
 21
94.024612
 31
0.0
210
0.0
220
0.0
230
1.0
  0
LINE
  5
8ED
100
AcDbEntity
  8
0
 62
     7
 48
0.130349
100
AcDbLine
 10
91.31691
 20
136.555145
 30
0.0
 11
96.530869
 21
136.555145
 31
0.0
210
0.0
220
0.0
230
1.0
  0
LINE
  5
8EE
100
AcDbEntity
  8
0
 62
     7
 48
0.124121
100
AcDbLine
 10
91.56604
 20
139.055145
 30
0.0
 11
96.530869
 21
139.055145
 31
0.0
210
0.0
220
0.0
230
1.0
  0
LINE
  5
8EF
100
AcDbEntity
  8
0
 62
     7
 48
0.328609
100
AcDbLine
 10
203.46405
 20
118.584976
 30
0.0
 11
216.608398
 21
118.584976
 31
0.0
210
0.0
220
0.0
230
1.0
  0
LINE
  5
8F0
100
AcDbEntity
  8
0
 62
     7
 48
0.348668
100
AcDbLine
 10
202.661667
 20
121.084976
 30
0.0
 11
216.608398
 21
121.084976
 31
0.0
210
0.0
220
0.0
230
1.0
  0
LINE
  5
8F1
100
AcDbEntity
  8
0
 62
     7
 48
0.27001
100
AcDbLine
 10
152.037216
 20
165.994812
 30
0.0
 11
162.837616
 21
165.994812
 31
0.0
210
0.0
220
0.0
230
1.0
  0
LINE
  5
8F2
100
AcDbEntity
  8
0
 62
     7
 48
0.258202
100
AcDbLine
 10
152.509552
 20
168.494812
 30
0.0
 11
162.837631
 21
168.494812
 31
0.0
210
0.0
220
0.0
230
1.0
  0
LINE
  5
8F3
100
AcDbEntity
  8
0
 62
     7
 48
0.216993
100
AcDbLine
 10
128.516144
 20
164.978455
 30
0.0
 11
137.195847
 21
164.978455
 31
0.0
210
0.0
220
0.0
230
1.0
  0
LINE
  5
8F4
100
AcDbEntity
  8
0
 62
     7
 48
0.205358
100
AcDbLine
 10
128.981537
 20
167.478455
 30
0.0
 11
137.195862
 21
167.478455
 31
0.0
210
0.0
220
0.0
230
1.0
  0
LINE
  5
8F5
100
AcDbEntity
  8
0
 62
     7
 48
0.318947
100
AcDbLine
 10
174.17572
 20
157.534973
 30
0.0
 11
186.933594
 21
157.534973
 31
0.0
210
0.0
220
0.0
230
1.0
  0
LINE
  5
8F6
100
AcDbEntity
  8
0
 62
     7
 48
0.308744
100
AcDbLine
 10
174.583817
 20
160.034973
 30
0.0
 11
186.933594
 21
160.034973
 31
0.0
210
0.0
220
0.0
230
1.0
  0
LINE
  5
8F7
100
AcDbEntity
  8
0
 62
     7
 48
0.167953
100
AcDbLine
 10
107.194321
 20
154.640625
 30
0.0
 11
113.91246
 21
154.640625
 31
0.0
210
0.0
220
0.0
230
1.0
  0
LINE
  5
8F8
100
AcDbEntity
  8
0
 62
     7
 48
0.158273
100
AcDbLine
 10
107.580666
 20
157.140625
 30
0.0
 11
113.911575
 21
157.140625
 31
0.0
210
0.0
220
0.0
230
1.0
  0
LINE
  5
8F9
100
AcDbEntity
  8
0
 62
     7
 48
0.103968
100
AcDbLine
 10
191.561615
 20
140.886841
 30
0.0
 11
195.720337
 21
140.886841
 31
0.0
210
0.0
220
0.0
230
1.0
  0
LINE
  5
8FA
100
AcDbEntity
  8
0
 62
     7
 48
0.163948
100
AcDbLine
 10
199.257462
 20
140.886841
 30
0.0
 11
205.815384
 21
140.886841
 31
0.0
210
0.0
220
0.0
230
1.0
  0
LINE
  5
8FB
100
AcDbEntity
  8
0
 62
     7
 48
0.3493
100
AcDbLine
 10
191.843369
 20
143.386841
 30
0.0
 11
205.815384
 21
143.386841
 31
0.0
210
0.0
220
0.0
230
1.0
  0
LINE
  5
8FC
100
AcDbEntity
  8
0
 62
     7
 48
0.036058
100
AcDbLine
 10
204.336395
 20
148.550003
 30
0.0
 11
205.778702
 21
148.550003
 31
0.0
210
0.0
220
0.0
230
1.0
  0
LINE
  5
8FD
100
AcDbEntity
  8
0
 62
     7
 48
0.186579
100
AcDbLine
 10
209.315826
 20
148.550003
 30
0.0
 11
216.778992
 21
148.550003
 31
0.0
210
0.0
220
0.0
230
1.0
  0
LINE
  5
8FE
100
AcDbEntity
  8
0
 62
     7
 48
0.240252
100
AcDbLine
 10
171.663788
 20
35.354927
 30
0.0
 11
181.273849
 21
35.354927
 31
0.0
210
0.0
220
0.0
230
1.0
  0
LINE
  5
8FF
100
AcDbEntity
  8
0
 62
     7
 48
0.226779
100
AcDbLine
 10
172.202682
 20
32.854927
 30
0.0
 11
181.273849
 21
32.854927
 31
0.0
210
0.0
220
0.0
230
1.0
  0
LINE
  5
900
100
AcDbEntity
  8
0
 62
     7
 48
0.199144
100
AcDbLine
 10
153.177017
 20
30.68309
 30
0.0
 11
161.142761
 21
30.68309
 31
0.0
210
0.0
220
0.0
230
1.0
  0
LINE
  5
901
100
AcDbEntity
  8
0
 62
     7
 48
0.184777
100
AcDbLine
 10
153.751678
 20
28.18309
 30
0.0
 11
161.142761
 21
28.18309
 31
0.0
210
0.0
220
0.0
230
1.0
  0
LINE
  5
902
100
AcDbEntity
  8
0
 62
     7
 48
0.156355
100
AcDbLine
 10
134.18103
 20
31.161018
 30
0.0
 11
140.435226
 21
31.161018
 31
0.0
210
0.0
220
0.0
230
1.0
  0
LINE
  5
903
100
AcDbEntity
  8
0
 62
     7
 48
0.142076
100
AcDbLine
 10
134.752182
 20
28.661018
 30
0.0
 11
140.435226
 21
28.661018
 31
0.0
210
0.0
220
0.0
230
1.0
  0
LINE
  5
904
100
AcDbEntity
  8
0
 62
     7
 48
0.114794
100
AcDbLine
 10
115.970261
 20
36.756134
 30
0.0
 11
120.562012
 21
36.756134
 31
0.0
210
0.0
220
0.0
230
1.0
  0
LINE
  5
905
100
AcDbEntity
  8
0
 62
     7
 48
0.101594
100
AcDbLine
 10
116.499084
 20
34.256134
 30
0.0
 11
120.562843
 21
34.256134
 31
0.0
210
0.0
220
0.0
230
1.0
  0
LINE
  5
906
100
AcDbEntity
  8
0
 62
     7
 48
0.077317
100
AcDbLine
 10
99.785957
 20
47.087143
 30
0.0
 11
102.878654
 21
47.087143
 31
0.0
210
0.0
220
0.0
230
1.0
  0
LINE
  5
907
100
AcDbEntity
  8
0
 62
     7
 48
0.066064
100
AcDbLine
 10
100.236099
 20
44.587143
 30
0.0
 11
102.878662
 21
44.587143
 31
0.0
210
0.0
220
0.0
230
1.0
  0
LINE
  5
908
100
AcDbEntity
  8
0
 62
     7
 48
0.046453
100
AcDbLine
 10
86.730911
 20
61.450001
 30
0.0
 11
88.589043
 21
61.450001
 31
0.0
210
0.0
220
0.0
230
1.0
  0
LINE
  5
909
100
AcDbEntity
  8
0
 62
     7
 48
0.037935
100
AcDbLine
 10
87.07164
 20
58.950001
 30
0.0
 11
88.589035
 21
58.950001
 31
0.0
210
0.0
220
0.0
230
1.0
  0
LINE
  5
90A
100
AcDbEntity
  8
0
 62
     7
 48
0.024307
100
AcDbLine
 10
77.694664
 20
78.865906
 30
0.0
 11
78.666954
 21
78.865906
 31
0.0
210
0.0
220
0.0
230
1.0
  0
LINE
  5
90B
100
AcDbEntity
  8
0
 62
     7
 48
0.01912
100
AcDbLine
 10
77.903023
 20
76.365906
 30
0.0
 11
78.667831
 21
76.365906
 31
0.0
210
0.0
220
0.0
230
1.0
  0
LINE
  5
90C
100
AcDbEntity
  8
0
 62
     7
 48
0.306536
100
AcDbLine
 10
202.190399
 20
58.545113
 30
0.0
 11
214.451859
 21
58.545113
 31
0.0
210
0.0
220
0.0
230
1.0
  0
LINE
  5
90D
100
AcDbEntity
  8
0
 62
     7
 48
0.297469
100
AcDbLine
 10
202.553116
 20
56.045113
 30
0.0
 11
214.451859
 21
56.045113
 31
0.0
210
0.0
220
0.0
230
1.0
  0
LINE
  5
90E
100
AcDbEntity
  8
0
 62
     7
 48
0.013791
100
AcDbLine
 10
73.737183
 20
115.482216
 30
0.0
 11
74.288818
 21
115.482216
 31
0.0
210
0.0
220
0.0
230
1.0
  0
LINE
  5
90F
100
AcDbEntity
  8
0
 62
     7
 48
0.01156
100
AcDbLine
 10
73.826424
 20
117.982216
 30
0.0
 11
74.288826
 21
117.982216
 31
0.0
210
0.0
220
0.0
230
1.0
  0
LINE
  5
910
100
AcDbEntity
  8
0
 62
     7
 48
0.027661
100
AcDbLine
 10
79.023872
 20
134.516907
 30
0.0
 11
80.130295
 21
134.516907
 31
0.0
210
0.0
220
0.0
230
1.0
  0
LINE
  5
911
100
AcDbEntity
  8
0
 62
     7
 48
0.021806
100
AcDbLine
 10
79.258049
 20
137.016907
 30
0.0
 11
80.130295
 21
137.016907
 31
0.0
210
0.0
220
0.0
230
1.0
  0
LINE
  5
912
100
AcDbEntity
  8
0
 62
     7
 48
0.012416
100
AcDbLine
 10
73.293221
 20
98.147987
 30
0.0
 11
73.789848
 21
98.147987
 31
0.0
210
0.0
220
0.0
230
1.0
  0
LINE
  5
913
100
AcDbEntity
  8
0
 62
     7
 48
0.010875
100
AcDbLine
 10
73.354851
 20
95.647987
 30
0.0
 11
73.789856
 21
95.647987
 31
0.0
210
0.0
220
0.0
230
1.0
  0
LINE
  5
914
100
AcDbEntity
  8
0
 62
     7
 48
0.27687
100
AcDbLine
 10
188.381332
 20
44.858143
 30
0.0
 11
199.456146
 21
44.858143
 31
0.0
210
0.0
220
0.0
230
1.0
  0
LINE
  5
915
100
AcDbEntity
  8
0
 62
     7
 48
0.265228
100
AcDbLine
 10
188.847931
 20
42.358143
 30
0.0
 11
199.457031
 21
42.358143
 31
0.0
210
0.0
220
0.0
230
1.0
  0
LINE
  5
916
100
AcDbEntity
  8
0
 62
     7
 48
0.280916
100
AcDbLine
 10
156.935532
 20
45.021545
 30
0.0
 11
168.17218
 21
45.021545
 31
0.0
210
0.0
220
0.0
230
1.0
  0
LINE
  5
917
100
AcDbEntity
  8
0
 62
     7
 48
0.26932
100
AcDbLine
 10
157.399368
 20
42.521545
 30
0.0
 11
168.17218
 21
42.521545
 31
0.0
210
0.0
220
0.0
230
1.0
  0
LINE
  5
918
100
AcDbEntity
  8
0
 62
     7
 48
0.112601
100
AcDbLine
 10
84.2556
 20
91.415024
 30
0.0
 11
88.759644
 21
91.415024
 31
0.0
210
0.0
220
0.0
230
1.0
  0
LINE
  5
919
100
AcDbEntity
  8
0
 62
     7
 48
0.109786
100
AcDbLine
 10
84.368195
 20
88.915024
 30
0.0
 11
88.759628
 21
88.915024
 31
0.0
210
0.0
220
0.0
230
1.0
  0
LINE
  5
91A
100
AcDbEntity
  8
0
 62
     7
 48
0.177551
100
AcDbLine
 10
111.332397
 20
52.465034
 30
0.0
 11
118.434441
 21
52.465034
 31
0.0
210
0.0
220
0.0
230
1.0
  0
LINE
  5
91B
100
AcDbEntity
  8
0
 62
     7
 48
0.167346
100
AcDbLine
 10
111.740616
 20
49.965034
 30
0.0
 11
118.434441
 21
49.965034
 31
0.0
210
0.0
220
0.0
230
1.0
  0
LINE
  5
91C
100
AcDbEntity
  8
0
 62
     7
 48
0.327995
100
AcDbLine
 10
178.33577
 20
55.359383
 30
0.0
 11
191.455582
 21
55.359383
 31
0.0
210
0.0
220
0.0
230
1.0
  0
LINE
  5
91D
100
AcDbEntity
  8
0
 62
     7
 48
0.318367
100
AcDbLine
 10
178.721786
 20
52.859383
 30
0.0
 11
191.456467
 21
52.859383
 31
0.0
210
0.0
220
0.0
230
1.0
  0
LINE
  5
91E
100
AcDbEntity
  8
0
 62
     7
 48
0.109926
100
AcDbLine
 10
83.301491
 20
113.475388
 30
0.0
 11
87.698524
 21
113.475388
 31
0.0
210
0.0
220
0.0
230
1.0
  0
LINE
  5
91F
100
AcDbEntity
  8
0
 62
     7
 48
0.108081
100
AcDbLine
 10
83.375305
 20
115.975388
 30
0.0
 11
87.698532
 21
115.975388
 31
0.0
210
0.0
220
0.0
230
1.0
  0
LINE
  5
920
100
AcDbEntity
  8
0
 62
     7
 48
0.228092
100
AcDbLine
 10
133.406723
 20
44.005188
 30
0.0
 11
142.530411
 21
44.005188
 31
0.0
210
0.0
220
0.0
230
1.0
  0
LINE
  5
921
100
AcDbEntity
  8
0
 62
     7
 48
0.216283
100
AcDbLine
 10
133.879105
 20
41.505188
 30
0.0
 11
142.530411
 21
41.505188
 31
0.0
210
0.0
220
0.0
230
1.0
  0
LINE
  5
922
100
AcDbEntity
  8
0
 62
     7
 48
0.362169
100
AcDbLine
 10
194.350433
 20
73.444855
 30
0.0
 11
208.837173
 21
73.444855
 31
0.0
210
0.0
220
0.0
230
1.0
  0
LINE
  5
923
100
AcDbEntity
  8
0
 62
     7
 48
0.355951
100
AcDbLine
 10
194.599121
 20
70.944855
 30
0.0
 11
208.837173
 21
70.944855
 31
0.0
210
0.0
220
0.0
230
1.0
  0
LINE
  5
924
100
AcDbEntity
  8
0
 62
     7
 48
0.136996
100
AcDbLine
 10
94.072815
 20
69.113159
 30
0.0
 11
99.552658
 21
69.113159
 31
0.0
210
0.0
220
0.0
230
1.0
  0
LINE
  5
925
100
AcDbEntity
  8
0
 62
     7
 48
0.129949
100
AcDbLine
 10
94.354691
 20
66.613159
 30
0.0
 11
99.55265
 21
66.613159
 31
0.0
210
0.0
220
0.0
230
1.0
  0
LINE
  5
926
100
AcDbEntity
  8
0
 62
     7
 48
0.296946
100
AcDbLine
 10
140.805634
 20
54.5
 30
0.0
 11
152.683456
 21
54.5
 31
0.0
210
0.0
220
0.0
230
1.0
  0
LINE
  5
927
100
AcDbEntity
  8
0
 62
     7
 48
0.296972
100
AcDbLine
 10
140.805695
 20
155.5
 30
0.0
 11
152.68457
 21
155.5
 31
0.0
210
0.0
220
0.0
230
1.0
  0
LINE
  5
928
100
AcDbEntity
  8
0
 62
     7
 48
0.057474
100
AcDbLine
 10
150.385269
 20
9.5
 30
0.0
 11
152.684235
 21
9.5
 31
0.0
210
0.0
220
0.0
230
1.0
  0
ENDSEC
  0
SECTION
  2
OBJECTS
  0
DICTIONARY
  5
19
100
AcDbDictionary
  3
ACAD_GROUP
350
1A
  3
ACAD_MLINESTYLE
350
1B
  0
DICTIONARY
  5
1A
102
{ACAD_REACTORS
330
19
102
}
100
AcDbDictionary
  0
DICTIONARY
  5
1B
102
{ACAD_REACTORS
330
19
102
}
100
AcDbDictionary
  3
STANDARD
350
1C
  0
MLINESTYLE
  5
1C
102
{ACAD_REACTORS
330
1B
102
}
100
AcDbMlineStyle
  2
STANDARD
 70
     0
  3

 62
     0
 51
90.0
 52
90.0
 71
     2
 49
0.5
 62
   256
  6
BYLAYER
 49
-0.5
 62
   256
  6
BYLAYER
  0
ENDSEC
  0
EOF
